Oops, an error
Loading. Please wait.

Indica tab

by Foxing
2,374 views 24 this week
1 commentread comment
1 2 3 4 5
x 5
add to favorites
×
Save as Personal and add changes to this tab that will be seen only by you. Learn more ›
×
You can save this tab as Personal to edit and correct it or add notes. All changes will be seen only by you. Learn more »
launch autoscroll
font size
0
reset
how to read this tab
guitar tuner
edit
Autoscroll
slow
fast
+/-
esc
set tempo
stop
Author
Difficulty
Tabbed by: Joe H
Tuning Standard (No Capo)

This tab is for Ricky's part.  It repeats throughout most of the song with only a couple of changes

If the explanation of when to play each part is confusing, the parts are listed in order with number
of repetitions at the bottom


[Main Part]

e|--2-----2-----2-----2------5-----5-----5-----5-----------------------------|
B|-----3-----3-----3-----3------3-----3-----3-----3--------------------------|
G|--4-----4-----4-----4------4-----4-----4-----4-----------------------------|
D|--5-----5-----5-----5------2-----2-----2-----2-----------------------------|
A|---------------------------------------------------------------------------|
E|---------------------------------------------------------------------------|

(Repeat until this is played once at around 2:45)


[Pre-Bridge]

e|--2-----2-----2-----2------5-----5------------2----------------------------|
B|-----3-----3-----3-----3------3-----3-----3h5---5--3-----------------------|
G|--4-----4-----4-----4------4-----4-----------------------------------------|
D|--5-----5-----5-----5------2-----2-----------------------------------------|
A|---------------------------------------------------------------------------|
E|---------------------------------------------------------------------------|

(Then repeat this four times, listen for the rhythm)


[Bridge]

e|------------------------2h3p2----------------------------------------------|
B|-----3-----3---------------------------------------------------------------|
G|--4-----2-----0------------------------------------------------------------|
D|---------------------------------------------------------------------------| 
A|---------------------------------------------------------------------------|
E|---------------------------------------------------------------------------|

(Repeat the main part a few more times, then play the next three parts once each)


[Main Part Variation]

e|--2-----2-----2-----2-------9-------9-------9-------9----------------------|
B|-----3-----3-----3-----3-------10------10------10------10------------------|
G|--4-----4-----4-----4------11------11------11------11----------------------|
D|--5-----5-----5-----5------12------12------12------12----------------------|
A|---------------------------------------------------------------------------|
E|---------------------------------------------------------------------------|


[Main Part variation 2]

e|--2-----2-----2-----2-------9-------9------12------12----------------------|
B|-----3-----3-----3-----3-------10------10------10------10------------------|
G|--4-----4-----4-----4------11------11------11------11----------------------|
D|--5-----5-----5-----5------12------12------12------12----------------------|
A|---------------------------------------------------------------------------|
E|---------------------------------------------------------------------------|


[Pre-Bridge]

e|--5-----5-----5-----5------5-----5------------2----------------------------|
B|-----3-----3-----3-----3------3-----3-----3h5---5--3-----------------------|
G|--4-----4-----4-----4------4-----4-----------------------------------------|
D|--2-----2-----2-----2------2-----2-----------------------------------------|
A|---------------------------------------------------------------------------|
E|---------------------------------------------------------------------------|


[Ending]

e|--2--|
B|--3--|
G|--4--|
D|--5--|
A|-----|
E|-----|


Main Part: X20
Pre-Bridge: X1
Bridge: X4
Main Part: X2
Main Part Variation: X1
Main Part Variation 2: X1
Pre-Bridge variation: X1
Ending X1


************************************
| h   Hammer-on
| p   Pull-off
************************************

            
            
Suggest correction
Creating personal tab
Creating personal tab
You can edit any tab online and save it as your Personal.

You can edit, replace or remove any tab part or add personal notes – all changes will be seen only by you.

Personal tabs can be accessed anytime from any device, even offline.
Learn more »
comments
print report bad tab
1 comment total.
+2 reply
djewell1 10 Sep 25, 2016 08:14 PM

Oh God my wrists.

Great tab though.

guest
You may want to rate the tab now too:
select rating
Wanna post a correction for this tab? Suggest correction