Oops, an error
Loading. Please wait.

The Medic tab

version 2
version 2

Whole song

by Foxing
2,851 views 42 this week
no commentswrite comment
1 2 3 4 5
x 4
add to favorites
×
Save as Personal and add changes to this tab that will be seen only by you. Learn more ›
×
You can save this tab as Personal to edit and correct it or add notes. All changes will be seen only by you. Learn more »
launch autoscroll
font size
0
reset
how to read this tab
guitar tuner
edit
Autoscroll
slow
fast
+/-
esc
set tempo
stop
-------------------------------------------------------------------------------
                           The Medic - Foxing
-------------------------------------------------------------------------------
Tabbed by: Joe H
E-mail: joey2_96@yahoo.com

Tuning: EBEG#BE

Capo 5 (Tab relative to capo)

So this is the actual way to play The Medic.
I used the other tab and the Little Elephant video to figure it out
It's only Ricky's part. Try to let the pull offs ring out throughout the song
Overall, the song is pretty easy, feel free to email me with questions

Intro:
     t    t      t    t
e |-------------------------2/4-7---------------|
B |--7p0--------------------------2-2/4/2p0-----|
G#|-------7p0----7p0----------------------------|
E |-------------------7p0-----------------------|
B |-------4p0---------4p0-----------------------|
E |--4p0---------4p0----------------------------|

Verse:
        t    t
e |----------------2/4-7---------------|
B |-----7p0---------------2-2/4p0------|
G#|----------7p0-----------------------|
E |------------------------------------|
B |----------4p0-----------------------|
E |-----4p0----------------------------|


Pre-Chorus:  
     t    t      t    t      t    t                t    t     1st ending 2nd Ending
e |--------------------------------------2-------------------|-12*------|-12*--------|
B |--7p0---------7p0---------7p0-----------0-------7p0-------|----------|-------12*--|
G#|-------7p0---------7p0---------7p0--------(0)--------7p0--|----------|----12*-----|
E |----------------------------------------------------------|----------|------------|
B |-------4p0---------4p0---------4p0-------------------4p0--|----------|------------|
E |--4p0---------4p0---------4p0-------------------4p0-------|----------|------------|


Chorus:
e |--2---------7-------------0---------0------|
B |-----0---------0------2/4---4---9/7---7/9--|
G#|--------0---------0------------------------|
E |-------------------------------------------|
B |--0----------------------------------------|
E |------------4------------------------------|

Ending:
e |--2--------|
B |-----0-----|
G#|--------0--|
E |-----------|
B |--0--------|
E |-----------|


Intro X1
Verse X8
Pre-Chorus X2
Chorus X2
Verse X8
Pre-Chorus X2
Chorus X4
Ending

************************************
| h   Hammer-on
| p   Pull-off
| t   Tapping
| /   Slide up
| \   Slide down
************************************

            
            
Suggest correction
Creating personal tab
Creating personal tab
You can edit any tab online and save it as your Personal.

You can edit, replace or remove any tab part or add personal notes – all changes will be seen only by you.

Personal tabs can be accessed anytime from any device, even offline.
Learn more »
comments
print report bad tab
guest
You may want to rate the tab now too:
select rating
Wanna post a correction for this tab? Suggest correction