Oops, an error
Loading. Please wait.

Unlike Any Other tab

1,129 views 6 this week
no commentswrite comment
1 2 3 4 5
x 3
add to favorites
×
Save as Personal and add changes to this tab that will be seen only by you. Learn more ›
×
You can save this tab as Personal to edit and correct it or add notes. All changes will be seen only by you. Learn more »
launch autoscroll
font size
0
reset
how to read this tab
guitar tuner
edit
Autoscroll
slow
fast
+/-
esc
set tempo
stop
Tuning is D Standard - DGCFAD

[Intro]

d|---------------------------------------------------------------------------|
A|-----1-----1-----1-----1-----1-------1-----1-----1-----1-----1-------------|
F|---0-----0-----0-----0-----0---0---0-----0-----0-----0-----0---0-----------|
C|-3-----2-------------------------------0-----------------------------------|
G|-------------3-----3-----3-------3-----------------------------------------|
D|---------------------------------------------3-----3-----3-----------------|

d|----------------------------------|
A|-----1-----1-----1-----1-----1----|
F|---0-----0-----0-----0-----0---0--|
C|----------------------------------|  x2
G|-------0--------------------------|
D|-3-----------1-----1-----1--------|


[Verse]

d|---------------------------------------------------------------------------|
A|-----1-----1-----1-----1-----1-------1-----1-----1-----1-----1-------------|
F|---0-----0-----0-----0-----0---0---0-----0-----0-----0-----0---0-----------|
C|-3-----2-------------------------------0-----------------------------------|
G|-------------3-----3-----3-------3-----------------------------------------|
D|---------------------------------------------3-----3-----3-----------------|
I'm sometimes whole...               but still don't know...


d|----------------------------------|
A|-----1-----1-----1-----1-----1----|
F|---0-----0-----0-----0-----0---0--|
C|----------------------------------|  
G|-------0--------------------------|
D|-3-----------1-----1-----1--------|
if you're my other...


d|---------------------------------------------------------------------------|
A|-----1-----1-----1-----1-----1-------1-----1-----1-----1-----1-------------|
F|---0-----0-----0-----0-----0---0---0-----0-----0-----0-----0---0-----------|
C|-3-----2-------------------------------0-----------------------------------|
G|-------------3-----3-----3-------3-----------------------------------------|
D|---------------------------------------------3-----3-----3-----------------|
There's always hope...              I'll style your home...


d|----------------------------------|
A|-----1-----1-----1-----1-----1----|
F|---0-----0-----0-----0-----0---0--|
C|----------------------------------|  
G|-------0--------------------------|
D|-3-----------1-----1-----1--------|
and love your brother...


[Instrumental]

d|---------------------------------------------------------------------------|
A|-----1-----1-----1-----1-----1-------1-----1-----1-----1-----1-------------|
F|---0-----0-----0-----0-----0---0---0-----0-----0-----0-----0---0-----------|
C|-3-----2-------------------------------0-----------------------------------|
G|-------------3-----3-----3-------3-----------------------------------------|
D|---------------------------------------------3-----3-----3-----------------|

d|----------------------------------|
A|-----1-----1-----1-----1-----1----|
F|---0-----0-----0-----0-----0---0--|
C|----------------------------------| 
G|-------0--------------------------|
D|-3-----------1-----1-----1--------|


[Verse 2]

d|---------------------------------------------------------------------------|
A|-----1-----1-----1-----1-----1-------1-----1-----1-----1-----1-------------|
F|---0-----0-----0-----0-----0---0---0-----0-----0-----0-----0---0-----------|
C|-3-----2-------------------------------0-----------------------------------|
G|-------------3-----3-----3-------3-----------------------------------------|
D|---------------------------------------------3-----3-----3-----------------|
Time's moved on...              I'm feeling strong...


d|---------------------------------------------------------------------------|
A|-----1-----1-----1-----1-----1-------1-----1-----1-----1-----1-------------|
F|---0-----0-----0-----0-----0---0---0-----0-----0-----0-----0---0-----------|
C|---------------------------------------------------------------------------|  
G|-------0-------------------------------------------------------------------|
D|-3-----------1-----1-----1-------1-----1-----1-----1-----1-----------------|  
and getting better...


d|---------------------------------------------------------------------------|
A|-----1-----1-----1-----1-----1-------1-----1-----1-----1-----1-------------|
F|---0-----0-----0-----0-----0---0---0-----0-----0-----0-----0---0-----------|
C|-3-----2-------------------------------0-----------------------------------|
G|-------------3-----3-----3-------3-----------------------------------------|
D|---------------------------------------------3-----3-----3-----------------|
But there's an age old love...     Showing up...


d|---------------------------------------------------------------------------|
A|-----1-----1-----1-----1-----1-------1-----1-----1-----1-----1-------------|
F|---0-----0-----0-----0-----0---0---0-----0-----0-----0-----0---0-----------|
C|---------------------------------------------------------------------------| 
G|-------0-------------------------------------3-----3-----3-----------------|
D|-3-----------1-----1-----1-------1-----3-----------------------------------|
sure enough...                let it come and go...


d|---------------------------------------------------------------------------|
A|-----1-----1-----1-----1-----1-------1-----1-----1-----1-----1-------------|
F|---0-----0-----0-----0-----0---0---0-----0-----0-----0-----0---0-----------|
C|-3-----2-----0-------------------------------------------------------------|
G|---------------------------------------2-----3-----3-----3-----------------|
D|-------------------3-----3-------3-----------------------------------------|
Let it ebb and flow out...    Cause I don't want...


d|---------------------------------------------------------------------------|
A|-----1-----1-----1-----1---------1-----1-----1-----1-----1-----------------|
F|---0-----0-----0-----0---------0-----0-----0-----0-----0---0---------------|
C|-3-----2-----0-------------------------------------------------------------| 
G|-------------------3-----2-3-----------------------------------------------|
D|-----------------------------3-----3-----3-----3-----3---------------------|
For you to love me just like any other...  


[Instrumental]

d|---------------------------------------------------------------------------|
A|-----1-----1-----1-----1-----1-------1-----1-----1-----1-----1-------------|
F|---0-----0-----0-----0-----0---0---0-----0-----0-----0-----0---0-----------|
C|-3-----2-------------------------------0-----------------------------------|
G|-------------3-----3-----3-------3-----------------------------------------|
D|---------------------------------------------3-----3-----3-----------------|

d|----------------------------------|
A|-----1-----1-----1-----1-----1----|
F|---0-----0-----0-----0-----0---0--|
C|----------------------------------| 
G|-------0--------------------------|
D|-3-----------1-----1-----1--------| 


[Verse 3]

d|---------------------------------------------------------------------------|
A|-----1-----1-----1-----1-----1-------1-----1-----1-----1-----1-------------|
F|---0-----0-----0-----0-----0---0---0-----0-----0-----0-----0---0-----------|
C|-3-----2-------------------------------0-----------------------------------|
G|-------------3-----3-----3-------3-----------------------------------------|
D|---------------------------------------------3-----3-----3-----------------|
The breaking dawn...              the fading sun...


d|---------------------------------------------------------------------------|
A|-----1-----1-----1-----1-----1-------1-----1-----1-----1-----1-------------|
F|---0-----0-----0-----0-----0---0---0-----0-----0-----0-----0---0-----------|
C|---------------------------------------------------------------------------|  
G|-------0-------------------------------------------------------------------|
D|-3-----------1-----1-----1-------1-----1-----1-----1-----1-----------------|  
and the moonlit waters...
             

d|---------------------------------------------------------------------------|
A|-----1-----1-----1-----1-----1-------1-----1-----1-----1-----1-------------|
F|---0-----0-----0-----0-----0---0---0-----0-----0-----0-----0---0-----------|
C|-3-----2-------------------------------0-----------------------------------|
G|-------------3-----3-----3-------3-----------------------------------------|
D|---------------------------------------------3-----3-----3-----------------|
Well there's an age old love...     Showing up...


d|---------------------------------------------------------------------------|
A|-----1-----1-----1-----1-----1-------1-----1-----1-----1-----1-------------|
F|---0-----0-----0-----0-----0---0---0-----0-----0-----0-----0---0-----------|
C|---------------------------------------------------------------------------| 
G|-------0-------------------------------------3-----3-----3-----------------|
D|-3-----------1-----1-----1-------1-----3-----------------------------------|
sure enough...                let it come and go...


d|---------------------------------------------------------------------------|
A|-----1-----1-----1-----1-----1-------1-----1-----1-----1-----1-------------|
F|---0-----0-----0-----0-----0---0---0-----0-----0-----0-----0---0-----------|
C|-3-----2-----0-------------------------------------------------------------|
G|---------------------------------------2-----3-----3-----3-----------------|
D|-------------------3-----3-------3-----------------------------------------|
Let it ebb and flow out...    Cause I don't want...


d|---------------------------------------------------------------------------|
A|-----1-----1-----1-----1---------1-----1-----1-----1-----------------------|
F|---0-----0-----0-----0---------0-----0-----0-----0-------------------------|
C|-3-----2-----0-------------------------------------------------------------| 
G|-------------------3-----2-3-----------------------------------------------|
D|-----------------------------3-----3-----3-----3---------------------------|
For you to love me just like any other... 



[Instrumental]

d|---------------------------------------------------------------------------|
A|-----1-----1-----1-----1-----1-------1-----1-----1-----1-----1-------------|
F|---0-----0-----0-----0-----0---0---0-----0-----0-----0-----0---0-----------|
C|-3-----2-------------------------------0-----------------------------------|
G|-------------3-----3-----3-------3-----------------------------------------|
D|---------------------------------------------3-----3-----3-----------------|

d|----------------------------------|
A|-----1-----1-----1-----1-----1----|
F|---0-----0-----0-----0-----0---0--|
C|----------------------------------| 
G|-------0--------------------------|
D|-3-----------1-----1-----1--------|



[Verse 4]

d|---------------------------------------------------------------------------|
A|-----1-----1-----1-----1-----1-------1-----1-----1-----1-----1-------------|
F|---0-----0-----0-----0-----0---0---0-----0-----0-----0-----0---0-----------|
C|-3-----2-------------------------------0-----------------------------------|
G|-------------3-----3-----3-------3-----------------------------------------|
D|---------------------------------------------3-----3-----3-----------------|
A simple glass of water...         plans upon a parlour...


d|----------------------------------|
A|-----1-----1-----1-----1-----1----|
F|---0-----0-----0-----0-----0---0--|
C|----------------------------------|  
G|-------0--------------------------|
D|-3-----------1-----1-----1--------|
the way I see you love her...


d|---------------------------------------------------------------------------|
A|-----1-----1-----1-----1-----1-------1-----1-----1-----1-----1-------------|
F|---0-----0-----0-----0-----0---0---0-----0-----0-----0-----0---0-----------|
C|-3-----2-------------------------------0-----------------------------------|
G|-------------3-----3-----3-------3-----------------------------------------|
D|---------------------------------------------3-----3-----3-----------------|
The way you hold your gaze strong...and take on all the world's wrong...


d|----------------------------------|
A|-----1-----1-----1-----1-----1----|
F|---0-----0-----0-----0-----0---0--|
C|----------------------------------|  
G|-------0--------------------------|
D|-3-----------1-----1-----1--------|
yet sing it like a sweet song...


d|---------------------------------------------------------------------------|
A|-----1-----1-----1-----1-----1-------1-----1-----1-----1-----1-------------|
F|---0-----0-----0-----0-----0---0---0-----0-----0-----0-----0---0-----------|
C|-3-----2-------------------------------0-----------------------------------|
G|-------------3-----3-----3-------3-----------------------------------------|
D|---------------------------------------------3-----3-----3-----------------|
Oh it's starting to become clear...I'm loving all that is, dear...


d|---------------------------------------------------------------------------|
A|-----1-----1-----1-----1-----1-------1-----1-----1-----1-----1-------------|
F|---0-----0-----0-----0-----0---0---0-----0-----0-----0-----0---0-----------|
C|---------------------------------------------------------------------------| 
G|-------0-------------------------------------3-----3-----3-----------------|
D|-3-----------1-----1-----1-------1-----3-----------------------------------|
Now 'bout your allergy to shed tears...well let them end their roll...


d|---------------------------------------------------------------------------|
A|-----1-----1-----1-----1-----1-------1-----1-----1-----1-----1-------------|
F|---0-----0-----0-----0-----0---0---0-----0-----0-----0-----0---0-----------|
C|-3-----2-----0-------------------------------------------------------------|
G|---------------------------------------2-----3-----3-----3-----------------|
D|-------------------3-----3-------3-----------------------------------------|
Let them ebb or flow down...    but I don't want...


d|---------------------------------------------------------------------------|
A|-----1-----1-----1-----1---------1-----1-----1-----1-----1-----------------|
F|---0-----0-----0-----0---------0-----0-----0-----0-----0---0---------------|
C|-3-----2-----0-------------------------------------------------------------| 
G|-------------------3-----2-3-----------------------------------------------|
D|-----------------------------3-----3-----3-----3-----3---------------------|
for you to love me just like any other... 


d|---------------------------------------------------------------------------|
A|-----1-----1-----1-----1-----1-------1-----1-----1-----1-----1-------------|
F|---0-----0-----0-----0-----0---0---0-----0-----0-----0-----0---0-----------|
C|-3-----2-------------------------------0-----------------------------------|
G|-------------3-----3-----3-------3-----------------------------------------|
D|---------------------------------------------3-----3-----3-----------------|
And it took to long...           to finally love...


d|----------------------------------|
A|-----1-----1-----1-----1-----1----|
F|---0-----0-----0-----0-----0---0--|
C|----------------------------------|  
G|-------0--------------------------|
D|-3-----------1-----1-----1--------|
for you to find me love...


[Outro]

d|---------------------------------------------------------------------------|
A|-----1-----1-----1-----1-----1-------1-----1-----1-----1-----1-------------|
F|---0-----0-----0-----0-----0---0---0-----0-----0-----0-----0---0-----------|
C|-3-----2-------------------------------0-----------------------------------|
G|-------------3-----3-----3-------3-----------------------------------------|
D|---------------------------------------------3-----3-----3-----------------|

d|---------------------------------------------------------------------------|
A|-----1-----1-----1-----1-----1-------1-----1-----1-----1-----1-------------|
F|---0-----0-----0-----0-----0---0---0-----0-----0-----0-----0---0-----------|
C|---------------------------------------------------------------------------| 
G|-------0-------------------------------------3-----3-----3-----------------|
D|-3-----------1-----1-----1-------1-----3-----------------------------------|

d|---------------------------------------------------------------------------|
A|-----1-----1---------------------------------------------------------------|
F|---0-----0-----------------------------------------------------------------|
C|-3-----2-------------------------------------------------------------------|
G|-------------3-------------------------------------------------------------|
D|---------------------------------------------------------------------------|


Thanks for checking this out!

Ant

            
            
Suggest correction
Creating personal tab
Creating personal tab
You can edit any tab online and save it as your Personal.

You can edit, replace or remove any tab part or add personal notes – all changes will be seen only by you.

Personal tabs can be accessed anytime from any device, even offline.
Learn more »
Give kudos to tab author, rate the tab!
1 2 3 4 5
comments
print report bad tab
guest
You may want to rate the tab now too:
select rating
Wanna post a correction for this tab? Suggest correction