Oops, an error
Loading. Please wait.

All That Remains Tab

version 1
version 1

Intro

Whole song

2,767 views 1 this week
2 commentsread comments
1 2 3 4 5
accurate
x 7
add to favorites
launch autoscroll
font size
0
reset
how to read this tab
guitar tuner
Autoscroll
slow
fast
+/-
esc
set tempo
stop
Help us to improve Ultimate-Guitar.com Take our survey!
×
Author
    -----------------------------------------
            FOZZY-----ALL THAT REMAINS
    -----------------------------------------
       just tune this standard(EADGBE)
guitar.1
|---------------------------------------------------------------|
|------------15-------------13-------------12-------------14----|
|--12/14-14--14---14\12-12--12---12\11-11--11---11/13-13--13----|
|---------------------------------------------------------------|X4
|---------------------------------------------------------------|
|---------------------------------------------------------------|


|---------------------------------------------------------------|
|---------------------------------------------------------------|
|-10/7--------777--555--444--555----------777--555--444----333--|
|-10/7--------666--444--333--333----------666--444--333----333--|  
|---------------------------------------------------------------|
|---------------------------------------------------------------|
             |------------------|X3         

|-------------------------------------------------------|
|-------------------------------------------------------|
|----777--555--444--555-----------777--555--444----333--|
|----666--444--333--333-----------666--444--333----333--|  
|-------------------------------------------------------|
|-------------------------------------------------------|
    |------------------|X3         

|------------------------------------|
|-----------12----------------14-----|
|-12/11-11--11------11/13-13--13-----|
|------------------------------------|
|------------------------------------|
|------------------------------------|

1st solo---guitar.2
|----11-9----------------------|
|-13------11-------------------|
|------------12-10-10----------|
|------------------------------|
|------------------------------|
|------------------------------|

           b
|---------------------------------------------------------------------|
|--8/10--7-8----8-10-8-10-8-10-8-10----8--8h9p8--6--------------------|
|---------------------------------------------------8-8/7-------------|
|----------------------------------------------------------8----------|
|---------------------------------------------------------------------|
|---------------------------------------------------------------------|


guitar.1
|---------------------------------------------------------------|
|------------15-------------13-------------12-------------14----|
|--12/14-14--14---14\12-12--12---12\11-11--11---11/13-13--13----|
|---------------------------------------------------------------|X6
|---------------------------------------------------------------|
|---------------------------------------------------------------|


|---------------------------------------------------------------|
|---------------------------------------------------------------|
|-10/7--------777--555--444--555----------777--555--444----333--|
|-10/7--------666--444--333--333----------666--444--333----333--|  
|---------------------------------------------------------------|
|---------------------------------------------------------------|
             |------------------|X3         

|-------------------------------------------------------|
|-------------------------------------------------------|
|----777--555--444--555-----------777--555--444----333--|
|----666--444--333--333-----------666--444--333----333--|  
|-------------------------------------------------------|
|-------------------------------------------------------|
    |------------------|X3

   
|---------------------------------|
|---------------------------------|
|---------------------------------|x10
|--5--5-7-8-7----555---5----------|
|--5--5-7-8-7----555---5----------|
|---------------------------------|
pm .             ...
 
dats all for now  

comments email me
lil_punk152@yahoo.com
Suggest correction
What's this?
You can suggest a correction to this tab. Community and Mods will review your correction and vote to approve or reject it.
comments
print report bad tab
2 comments total.
0 reply
guitarist_2006 703 wrote on August 14 2006, 01:59 am

|-----------10------------8-----------7------------9-
|-8/10--10--10-----10\8-8-8-----8\7-7-7------7/9-9-9-
|----------------------------------------------------
|----------------------------------------------------
|----------------------------------------------------
|----------------------------------------------------

0 reply
guitarist_2006 703 wrote on August 14 2006, 01:59 am

or u can try dat^^^^^^^

guest
You may want to rate the tab now too:
select rating
Please do not post tabs as comments. Select "correction" instead!