Oops, an error
Loading. Please wait.

All That Remains Tab

version 1
version 1

Whole song

1,911 views 3 this week
no commentswrite comment
1 2 3 4 5
please rate
add to favorites
launch autoscroll
font size
0
reset
how to read this tab
guitar tuner
Autoscroll
slow
fast
+/-
esc
set tempo
stop
Help us to improve Ultimate-Guitar.com Take our survey!
×
Author
Difficulty
intermediate


guitar.1   intro(0:05)
|----------------------------------------------------------------|
|-8/10----10-----10/8----8-----8/7----7-------7/9-----9----------|
|-------8-------------8-------------8--------------8-------------|
|----------------------------------------------------------------|  X4
|----------------------------------------------------------------|
|----------------------------------------------------------------|

(0:48)
|----------------------------------------------------------------|
|----------------------------------------------------------------|
|-10/7--------777--555--444--555-----------777--555--444----333--|
|-10/7--------666--444--333--333-----------666--444--333----333--|  
|----------------------------------------------------------------|
|----------------------------------------------------------------|
             |------------------|X3         

|-------------------------------------------------------|
|-------------------------------------------------------|
|----777--555--444--555-----------777--555--444----333--|
|----666--444--333--333-----------666--444--333----333--|  
|-------------------------------------------------------|
|-------------------------------------------------------|
    |------------------|X3         

 GUITAR 2   1ST SOLO ...(1:09)            b
|----11-9---------------------------3/5---3--4---35353535-3--2h3p2--2------|
|-13------10-----------------------------------------------------------3/2-|
|------------11-9----7--8/10---8------------------------------------------3|
|--------------------------------------------------------------------------|
|--------------------------------------------------------------------------|
|--------------------------------------------------------------------------|


GUITAR 1...(1:09)
|--------------------------------------------------
|---8/10-----10---10/8-----------------------------
|---------11------------11-------------------------
|--------------------------------------------------
|--------------------------------------------------
|--------------------------------------------------


|----------------------------------------------------------------|
|-8/10----10-----10/8----8-----8/7----7-------7/9-----9----------|
|-------8-------------8-------------8--------------8-------------|
|----------------------------------------------------------------|X5
|----------------------------------------------------------------|
|----------------------------------------------------------------|


(2:08)
|----------------------------------------------------------------|
|----------------------------------------------------------------|
|-10/7--------777--555--444--555-----------777--555--444----333--|
|-10/7--------666--444--333--333-----------666--444--333----333--|  
|----------------------------------------------------------------|
|----------------------------------------------------------------|
             |------------------|X3         

|-------------------------------------------------------|
|-------------------------------------------------------|
|----777--555--444--555-----------777--555--444----333--|
|----666--444--333--333-----------666--444--333----333--|  
|-------------------------------------------------------|
|-------------------------------------------------------|
    |------------------|X3         



|--------------------------|
|---8/10-----10---10/8-----|
|---------11------------11-|
|--------------------------|
|--------------------------|
|--------------------------|


|-------------------------|
|-------------------------|
|-------------------------|==X10
|-X-5--7--8--7--XXX-5-----|
|-X-5--7--8--7--XXX-5-----|
|-------------------------|


DIS HOW FAR I'VE CAN TAB
I DID DIS WITH AN ACOUSTIC

x--palm mute
/--slide up
h--hammer on
p--pull off
b--bend

please rate dis tabs
Suggest correction
Give kudos to tab author, rate the tab!
1 2 3 4 5
comments
print report bad tab
guest
You may want to rate the tab now too:
select rating
Please do not post tabs as comments. Select "correction" instead!