Oops, an error
Loading. Please wait.

Bad Tattoo Bass Tab

7 views 3 this week
no commentswrite comment
1 2 3 4 5
3 more votes to show rating
add to favorites
launch autoscroll
font size
0
reset
guitar tuner
Autoscroll
slow
fast
+/-
esc
set tempo
stop
Help us to improve Ultimate-Guitar.com Take our survey!
×
Author
Difficulty
Tuning
intermediate
C G C F A D
Fozzy: Bad Tattoo                                       Drop C Tuning   

Guitar Intro

 [Intro]
F|----------------------------------------------------------|
C|----------------------------------10----------------10----|
G|----------------------------------------------------------|
C|-12\-0--0~-0-0-0~--0-0-0-10-10-12----12-10-10-10-12----10-|

F|------------------------------------------------------|
C|------------------------------10----------------10----|
G|------------------------------------------------------|2x
C|-0~--0-0-0-0~--0-0-0-10-10-12----12-10-10-10-12----10-|

F|-------------------------------------------|
C|-------------------------------------------|
G|---------------------5-5-5-5-5-5-5-5-5-5\--|
C|-0--0~-0-0-0~--0-0-0-----------------------|

F|------------------------------------------------------|
C|------------------------------10----------------10----|
G|------------------------------------------------------|
C|-0--0~-0-0-0~--0-0-0-10-10-12----12-10-10-10-12----10-|

F|------------------------------------------------------|
C|------------------------------10----------------10----|
G|------------------------------------------------------|2x
C|-0~--0-0-0-0~--0-0-0-10-10-12----12-10-10-10-12----10-|

F|----------------------------------------|
C|----------------------------------------|
G|---------------------3~-3~-3~-----------|
C|-0--0~-0-0-0~--0-0-0----------5--3--0~--|

 [Verse 1]
F|-----------------------------------------------|
C|-----------------------------------------------|
G|-----------------------------------------------|3x
C|-0--0--0--0--0--0--0--0--0--0--0--0--0--0------|

F|-----------------------------------------------|
C|-----------------------------------------------|
G|-----------------------------------------------|
C|-0--0--0--0--0--0--0--0--0--0--0--0--0--0--3~--|

 [Chorus]
F|------------------------------------------------------|
C|------------------------------10----------------10----|
G|------------------------------------------------------|
C|-0--0~-0-0-0~--0-0-0-10-10-12----12-10-10-10-12----10-|

F|------------------------------------------------------|
C|------------------------------10----------------10----|
G|------------------------------------------------------|2x
C|-0~--0-0-0-0~--0-0-0-10-10-12----12-10-10-10-12----10-|

F|--------------------------------------|
C|--------------------------------------|
G|--------------------------------------|
C|-0--0-0-0-0-0--0-0-0-0-6~-----2~------|

F|------------------------------------------------------|
C|------------------------------10----------------10----|
G|------------------------------------------------------|
C|-0--0~-0-0-0~--0-0-0-10-10-12----12-10-10-10-12----10-|

F|------------------------------------------------------|
C|------------------------------10----------------10----|
G|------------------------------------------------------|2x
C|-0~--0-0-0-0~--0-0-0-10-10-12----12-10-10-10-12----10-|

F|----------------------------------------|
C|----------------------------------------|
G|---------------------3~-3~-3~-----------|
C|-0--0~-0-0-0~--0-0-0----------5--3--0~--|

 [Verse 2]
F|-----------------------------------------------|
C|-----------------------------------------------|
G|-----------------------------------------------|
C|-0--0--0--0--0--0--0--0--0--0--0--0--0--0------|

F|-----------------------------------------------|
C|-----------------------------------------------|
G|-----------------------------------------------|
C|-0--0--0--0--0--0--0--0--0--0--0--0--0---------|

F|-----------------------------------------------|
C|-----------------------------------------------|
G|-----------------------------------------------|3x
C|-0--0--0--0--0--0--0--0--0--0--0--0--0--0------|

F|-----------------------------------------------|
C|-----------------------------------------------|
G|-----------------------------------------------|
C|-0--0--0--0--0--0--0--0--0--0--0--0--0--0--3~--|

 [Chorus]
F|------------------------------------------------------|
C|------------------------------10----------------10----|
G|------------------------------------------------------|
C|-0--0~-0-0-0~--0-0-0-10-10-12----12-10-10-10-12----10-|

F|------------------------------------------------------|
C|------------------------------10----------------10----|
G|------------------------------------------------------|2x
C|-0~--0-0-0-0~--0-0-0-10-10-12----12-10-10-10-12----10-|

F|--------------------------------------|
C|--------------------------------------|
G|--------------------------------------|
C|-0--0-0-0-0-0--0-0-0-0-6~-----2~------|

F|------------------------------------------------------|
C|------------------------------10----------------10----|
G|------------------------------------------------------|
C|-0--0~-0-0-0~--0-0-0-10-10-12----12-10-10-10-12----10-|

F|------------------------------------------------------|
C|------------------------------10----------------10----|
G|------------------------------------------------------|2x
C|-0~--0-0-0-0~--0-0-0-10-10-12----12-10-10-10-12----10-|

F|----------------------------------------|
C|----------------------------------------|
G|---------------------3~-3~-3~-----------|
C|-0--0~-0-0-0~--0-0-0----------5--3--0~--|

 [Bridge]
F|-----------------------------------------------------------------|
C|-----------------------------------------------------------------|
G|-----------------------------------------------------------------|5x
C|-0-0-0-0-0-0-0-0-0-0-0-0-0-0-0-0-0-0-0-0-0-0-0-0-0-0-0-0-6-6-5-3-|

F|-----------------------------------------------------------------|
C|-----------------------------------------------------------------|
G|-----------------------------------------------------------------|
C|-0-0-0-0-0-0-0-0-0-0-0-0-0-0-0-0-0-0-0-0-0-0-0-0-0---------------|

F|-----------------------------------------------|
C|-----------------------------------------------|
G|-----------------------------------------------|2x
C|-0--0--0--0--0--0--0--0--0--0--0--0--0---------|

 [Final Chorus]
F|------------------------------------------------------|
C|------------------------------10----------------10----|
G|------------------------------------------------------|
C|-0--0~-0-0-0~--0-0-0-10-10-12----12-10-10-10-12----10-|

F|------------------------------------------------------|
C|------------------------------10----------------10----|
G|------------------------------------------------------|2x
C|-0~--0-0-0-0~--0-0-0-10-10-12----12-10-10-10-12----10-|

F|--------------------------------------|
C|--------------------------------------|
G|--------------------------------------|
C|-0--0-0-0-0-0--0-0-0-0-6~-----2~------|

F|------------------------------------------------------|
C|------------------------------10----------------10----|
G|------------------------------------------------------|
C|-0--0~-0-0-0~--0-0-0-10-10-12----12-10-10-10-12----10-|

F|------------------------------------------------------|
C|------------------------------10----------------10----|
G|------------------------------------------------------|2x
C|-0~--0-0-0-0~--0-0-0-10-10-12----12-10-10-10-12----10-|

F|----------------------------------------|
C|----------------------------------------|
G|---------------------3~-3~-3~-----------|
C|-0--0~-0-0-0~--0-0-0----------5--3--0~--|

F|------------------------------------------------------|
C|------------------------------10----------------10----|
G|------------------------------------------------------|
C|-0--0~-0-0-0~--0-0-0-10-10-12----12-10-10-10-12----10-|

F|------------------------------------------------------|
C|------------------------------10----------------10----|
G|------------------------------------------------------|2x
C|-0~--0-0-0-0~--0-0-0-10-10-12----12-10-10-10-12----10-|

F|--------------------------------------|
C|--------------------------------------|
G|--------------------------------------|
C|-0--0-0-0-0-0--0-0-0-0-6~-----2~------|

F|------------------------------------------------------|
C|------------------------------10----------------10----|
G|------------------------------------------------------|
C|-0--0~-0-0-0~--0-0-0-10-10-12----12-10-10-10-12----10-|

F|------------------------------------------------------|
C|------------------------------10----------------10----|
G|------------------------------------------------------|2x
C|-0~--0-0-0-0~--0-0-0-10-10-12----12-10-10-10-12----10-|

F|------------------------------------------------------------------------------|
C|------------------------------------------------------------------------------|
G|-----------------------------------------------------3-3-3-3-3----------5--5\-|
C|-0--0-0-0-0-0--0-0-0-0-6~-----2~------5~------1~---------------5--3--0--------|
Suggest correction
Give kudos to tab author, rate the tab!
1 2 3 4 5
comments
print report bad tab
guest
You may want to rate the tab now too:
select rating
Wanna post a correction for this tab? Suggest correction