Oops, an error
Loading. Please wait.

Broken Soul Tab

1,235 views 1 this week
no commentswrite comment
1 2 3 4 5
please rate
add to favorites
launch autoscroll
font size
0
reset
how to read this tab
guitar tuner
Autoscroll
slow
fast
+/-
esc
set tempo
stop
Help us to improve Ultimate-Guitar.com Take our survey!
×
Contributor
Kreuger 1,429
Fozzy
Broken Soul
Chasing the Grail
2010
Drop D

*Use distortion throughout all but the verses. This song
is mostly pretty easy, I just couldnt figure out the verses.
It almost seems like its a picking pattern based around the C5
power chord but I'm not 100% so Im leaving it out.*

  Verse:
E---
B---
G---
D---
A---
D---

  Pre Chorus: (palm mutes)
E-------------------------|
B-------------------------|
G-------------------------|
D---10-10-10-10-8-8-8-8---|
A---10-10-10-10-8-8-8-8---|
D---10-10-10-10-8-8-8-8---|

  Chorus:
E-------------------------------|
B-------------------------------|
G---10------8------10------8\---|
D---10--10--8--8---10--10--8\---|
A----8--10--6--8----8--10--6\---|
D-------10-----8-------10-------|

  Chorus ending: (palm mute open notes)
E------------------------------|
B------------------------------|
G--10-10-----------------------| x4
D--10-10---------8p7p5---------|
A---8--8-00-6-8--------8p7p5---|
D--------00-6-8----------------|

  Verse: (distorted)
E---------------------------------------|
B---------------------------------------|
G---10-10------9-9------7-7------3--5---| x4
D---10-10------9-9------7-7------3--5---|
A----8--8------7-7------5-5------1--3---|
D---------xx-x-----xx-x-----xx-x--------|

  Pre Chorus: (palm mute)
E---------------------------------------------|
B---------------------------------------------|
G---------------------------------------------|
D---10-10-10-10-10-10-10-10-8-8-8-8-8-8-8-8---|
A---10-10-10-10-10-10-10-10-8-8-8-8-8-8-8-8---|
D---10-10-10-10-10-10-10-10-8-8-8-8-8-8-8-8---|

  Chorus:
E-------------------------------|
B-------------------------------|
G---10------8------10------8\---|
D---10--10--8--8---10--10--8\---|
A----8--10--6--8----8--10--6\---|
D-------10-----8-------10-------|

  Chorus ending: (palm mute open notes)
E------------------------------|
B------------------------------|
G--10-10-----------------------| x4
D--10-10---------8p7p5---------|
A---8--8-00-6-8--------8p7p5---|
D--------00-6-8----------------|


  Bridge: (Before piano break)
E--------------------------------------|
B--------------------------------------|
G--------------------------------------|
D---7-7-7-7-7-7-7-7--8-8-8-8-8-8-8-8---|
A---7-7-7-7-7-7-7-7--8-8-8-8-8-8-8-8---|
D---7-7-7-7-7-7-7-7--8-8-8-8-8-8-8-8---|

  Verse: (with piano)
E---
B---
G---
D---
A---
D---

  Pre Chorus: (palm mute)
E---------------------------------------------|
B---------------------------------------------|
G---------------------------------------------|
D---10-10-10-10-10-10-10-10-8-8-8-8-8-8-8-8---|
A---10-10-10-10-10-10-10-10-8-8-8-8-8-8-8-8---|
D---10-10-10-10-10-10-10-10-8-8-8-8-8-8-8-8---|

  Chorus:
E-------------------------------|
B-------------------------------|
G---10------8------10------8\---|
D---10--10--8--8---10--10--8\---|
A----8--10--6--8----8--10--6\---|
D-------10-----8-------10-------|

  Chorus ending: (palm mute open notes)
E------------------------------|
B------------------------------|
G--10-10-----------------------| x4 (last time leave out the pull offs)
D--10-10---------8p7p5---------|
A---8--8-00-6-8--------8p7p5---|
D--------00-6-8----------------|


E------------------------------|
B------------------------------|
G--10-10-----------------------| x4
D--10-10---------8p7p5---------|
A---8--8-00-6-8--------8p7p5---|
D--------00-6-8----------------|


  Song end:
E--------------------|
B--------------------|
G--10-10----10-10\---|
D--10-10----10-10\---|
A---8--8-00--8--8\---|
D--------00----------|
comments
We did not receive enough feedback on this tab! Please rate:
print report bad tab
1 2 3 4 5
I want to post or [tab]
guest
You may want to rate the tab now too:
select rating
Please do not post tabs as comments. Select "correction" instead!