Oops, an error
Loading. Please wait.

Enemy Tab

version 1
version 1

Whole song

Interactive

9,107 views 6 this week
3 commentsread comments
1 2 3 4 5
excellent!
x 6
add to favorites
launch autoscroll
font size
0
reset
how to read this tab
guitar tuner
Tab Pro tools
  • play this tab
  • loop segment
  • change instrument
  • show fretboard
  • metronome
Autoscroll
slow
fast
+/-
esc
set tempo
stop
Artist: Fozzy
Title: Enemy
Album: All That Remains
Tabbed by: Journey manII
E-mail: gillian.cairns@btinternet.com

TUNING (low to high): CGCFAD

LEGEND:
pm= Palm mute
h = Hammer-on
p = Pull-off
x = Muted note
~ = Vibrato
/ = Slide up
\ = Slide down
o = The section between the two pairs of o's is repeated.
    The section is played the number of times stated above the tab lines.
b = Bend
br= Bend and Release
* = Pinch harmonice

INTRO:
*Light Distortion*

|---------14-15---------14------------14-15---------14-----|
|--------------------------15--------------------------15--|
|---14h16---------14h16---------14h16---------14h16--------|
|----------------------------------------------------------|
|----------------------------------------------------------|
|----------------------------------------------------------|

|---------14-15---------14------------14-15----------------|
|--------------------------15------------------------------|
|---14h16---------14h16---------14h16----------------7-----|
|---------------------------------------------x-5----7-----|
|---------------------------------------------x-5----5-----|
|---------------------------------------------x-5----------|

VERSE:

Gtr 1:
|---------14-15---------14------------14-15----------------|
|--------------------------15------------------------------|
|---14h16---------14h16---------14h16-------------------7--|
|---------------------------------------------x-5---x---7--|
|---------------------------------------------x-5---x---5--|
|---------------------------------------------x-5---x------|
Gtr 2:
|----------------------------------------------------------|
|----------------------------------------------------------|
|-------------------------------------------------------7--|
|---2~~~~~~~~~~~~~~~~~~~~~~~~~~~~~~~~~~~~~~---x-5---x---7--|
|---------------------------------------------x-5---x---5--|
|---------------------------------------------x-5---x------|

Gtr 1:
|---------14-15---------14------------14-15----------------|
|--------------------------15------------------------------|
|---14h16---------14h16---------14h16-------------------7--|
|---------------------------------------------x-5---x---7--|
|---------------------------------------------x-5---x---5--|
|---------------------------------------------x-5---x------|
Gtr 2:
|----------------------------------------------------------|
|----------------------------------------------------------|
|----------------------------------------------------------|
|---2~~~~~~~~~~~~~~~~~~~~~~~~~~~~~~~~~~~~~~---x------------|
|---------------------------------------------x------------|
|---------------------------------------------x-Pickslide--|

PRE-CHORUS:
*Heavy Distortion*

Gtr 1:
|-------------------------------------------------------------------------------|
|-------------------------------------------------------------------------------|
|-------------------------------------------------------------------------------|
|---2--0--2--0--5/7------2--0--2--0--5------2--0--2--0--5/7------2--0--2--0--5--|
|---2--0--2--0--5/7------2--0--2--0--5------2--0--2--0--5/7------2--0--2--0--5--|
|---2--0--2--0--5/7------2--0--2--0--5------2--0--2--0--5/7------2--0--2--0--5--|
Gtr 2:
|-------------------------------------------------------------------------------|
|-------------------------------------------------------------------------------|
|-------------------------------------------------------------------------------|
|---2--0--2--0--5/7------2--0--2--0--5------2--0--2--0--5/7------2--0--2--0--5--|
|---2--0--2--0--5/7------2--0--2--0--5------2--0--2--0--5/7------2--0--2--0--5--|
|---2--0--2--0--5/7------2--0--2--0--5------2--0--2--0--5/7------2--0--2--0--5--|

Gtr 1:
|----------------------------------------------------------------------------------|
|----------------------------------------------------------------------------------|
|----------------------------------------------------------------------------------|
|---2--0--2--0--5/7------2--0--2--0--5--x--7-----9-----5---------------------------|
|---2--0--2--0--5/7------2--0--2--0--5--x--5-----7-----5------x-x-x-x-x-x-x-x-x-x--|
|---2--0--2--0--5/7------2--0--2--0--5--x--0-----------5------x-x-x-x-x-x-x-x-x-x--|
Gtr 2:
|----------------------------------------------------------------------------------|
|----------------------------------------------------------------------------------|
|----------------------------------------------------------------------------------|
|---2--0--2--0--5/7------2--0--2--0--5--x--7--x--9-----5---------------------------|
|---2--0--2--0--5/7------2--0--2--0--5--x--5--x--7-----5------x-x-x-x-x-x-x-x-x-x--|
|---2--0--2--0--5/7------2--0--2--0--5--x--0--x--------5------x-x-x-x-x-x-x-x-x-x--|

CHORUS:

Gtr 1:
|-----------------------------------------------------------|
|-----------------------------------------------------------|
|-----------------------------------------------------------|
|---9---7------x-x--7--7-x-5------9---7------x-x--7--7-x-5--|
|---7---5------x-x--5--5-x-3------7---5------x-x--5--5-x-3--|
|--------------x-x---------------------------x-x------------|
Gtr 2:
|-----------------------------------------------------------|
|-----------------------------------------------------------|
|-----------------------------------------------------------|
|---9---7------x-x--7--7---5------9---7------x-x--7--7---5--|
|---7---5------x-x--5--5---3------7---5------x-x--5--5---3--|
|--------------x-x---------------------------x-x------------|

Gtr 1:
|-----------------------------------------------------------|
|-----------------------------------------------------------|
|-----------------------------------------------------------|
|---9---7------x-x--7--7-x-5------9---7------x-x--7--7---5--|
|---7---5------x-x--5--5-x-3------7---5------x-x--5--5---3--|
|--------------x-x---------------------------x-x------------|
Gtr 2:
|-----------------------------------------------------------|
|-----------------------------------------------------------|
|-----------------------------------------------------------|
|---9---7------x-x--7--7---5------9---7------x-x--7--7---5--|
|---7---5------x-x--5--5---3------7---5------x-x--5--5---3--|
|--------------x-x---------------------------x-x------------|

1st BRIDGE:

Gtrs 1 & 2:                                                    2x
|----------------------------------------------------------------|
|----------------------------------------------------------------|
|o--------------------------------------------------------------o|
|o--0/2-2--0/2-2--0/2-2--5-2-0------0/2-2--0/2-2--0/2-2--5---0--o|
|---0/2-2--0/2-2--0/2-2--5-2-0------0/2-2--0/2-2--0/2-2--5---0---|
|---0/2-2--0/2-2--0/2-2--5-2-0------0/2-2--0/2-2--0/2-2--5---0---|

2nd BRIDGE:

Gtr 1:                                                         4x
|----------------------------------------------------------------|
|----------------------------------------------------------------|
|o--------------------------------------------------------------o|
|o--0/2-2--0/2-2--0/2-2--5-2-0------0/2-2--0/2-2--0/2-2--5---0--o|
|---0/2-2--0/2-2--0/2-2--5-2-0------0/2-2--0/2-2--0/2-2--5---0---|
|---0/2-2--0/2-2--0/2-2--5-2-0------0/2-2--0/2-2--0/2-2--5---0---|
Gtr 2:
|----------------------------------------------------------------|
|----------------------------------------------------------------|
|o--------------------------------------------------------------o|
|o--0/2-2--0/2-2--0/2-2--5-2-0------0/2-2--0/2-2--0/2-2---------o|
|---0/2-2--0/2-2--0/2-2--5-2-0------0/2-2--0/2-2--0/2-2--10\-----|
|---0/2-2--0/2-2--0/2-2--5-2-0------0/2-2--0/2-2--0/2-2----------|

INTERLUDE:

Gtr 1:                                           2x
|--------------------------------------------------|
|--------------------------------------------------|
|o--16-------17-------16-------17----17h19p17-16--o|
|o------------------------------------------------o|
|--------------------------------------------------|
|--------------------------------------------------|
Gtr 2:
|--------------------------------------------------|
|--------------------------------------------------|
|o--9-9-9-9--9-9-9-9--9-9-9-9--9-9-9-9------------o|
|o--9-9-9-9--9-9-9-9--9-9-9-9--9-9-9-9------------o|
|--------------------------------------------------|
|--------------------------------------------------|
Pm  - - - -  - - - -  - - - -  - - - -

OUTRO SOLO:
Gtr 2 plays 2nd BRIDGE

Gtr 1:
|----------------------------------------------|
|--17~~~---15h17--15b-17-15b-17-15br\---15h17--|
|----------------------------------------------|
|----------------------------------------------|
|----------------------------------------------|
|----------------------------------------------|

|----------------------------------------------------|
|--15h17p15----15----------------------*--------*----|
|-----------16----16-14----------------16-12h14-12\--|
|-----------------------17\14----14------------------|
|-----------------------------17----17---------------|
|----------------------------------------------------|

|--------------------------------------|
|--------------------------------------|
|--12-12h14-/16-14p12-14-14br12h14-12--|
|--------------------------------------|
|--------------------------------------|
|--------------------------------------|

|--17b-17br-19-17\15-15-17-15h17-15h17p15-14-15-14----14----------14--------------|
|--------------------------------------------------17----17-15-17----17-19b-19br--|
|---------------------------------------------------------------------------------|
|---------------------------------------------------------------------------------|
|---------------------------------------------------------------------------------|
|---------------------------------------------------------------------------------|

|--22-22p21p19----22p21p19----22p21p19----22p21p19----22p21p19----22p21p19---------------|
|--------------19----------19----------19----------19----------19----------19-17\15-15~--|
|----------------------------------------------------------------------------------------|
|----------------------------------------------------------------------------------------|
|----------------------------------------------------------------------------------------|
|----------------------------------------------------------------------------------------|

|--22-22p21p19----22p21p19----22p21p19----22p21p19-----|
|--------------19----------19----------19----------19--|
|------------------------------------------------------|
|------------------------------------------------------|
|------------------------------------------------------|
|------------------------------------------------------|

|--22p21p19----22p21p19----22p21p19----22p21p19----22--22b~~~~~~--|
|-----------19----------19----------19----------19----------------|
|-----------------------------------------------------------------|
|-----------------------------------------------------------------|
|-----------------------------------------------------------------|
|-----------------------------------------------------------------|

ORDER:

INTRO
VERSE
PRE-CHORUS
CHORUS
1st BRIDGE
VERSE
PRE-CHORUS
CHORUS
2nd BRIDGE
INTERLUDE
CHORUS
2nd BRIDGE
OUTRO SOLO (PLAYED OVER 2nd BRIDGE)
comments
print report bad tab
3 comments total.
0 reply
hazz7625 wrote on March 15 2005, 12:00 am

cool tab, keep 'em comin!
Fozzy rock!

0 reply
van-halen rock wrote on February 8 2006, 07:11 am

ace tab FOZZY ROCK!!

0 reply
Side Effect 666 wrote on April 4 2006, 02:09 pm

wooooooh! nice tab. Y2J RULES!!

I want to post or [tab]
guest
You may want to rate the tab now too:
select rating
Please do not post tabs as comments. Select "correction" instead!