Oops, an error
Loading. Please wait.

Freewheel Burning Tab

1,130 views 1 this week
no commentswrite comment
1 2 3 4 5
please rate
add to favorites
launch autoscroll
font size
0
reset
how to read this tab
guitar tuner
Tab Pro tools
  • play this tab
  • loop segment
  • change instrument
  • show fretboard
  • metronome
×
Best way to learn
"Freewheel Burning"
Autoscroll
slow
fast
+/-
esc
set tempo
stop
Contributor
Difficulty
intermediate
There is an intresting little intro section that is very cool
that i can't figure out, the song is Whole Step Down but virtually
is played identically the Judas Preist Version
Enjoy

Riff A (intro)

|-----------------------------|
|-----------------------------|
|-----------------------------|
|-7----7----7----7----7---7---|
|---00---00---00---00---0---0-|
|-----------------------------|

Riff B

|----------------------------|
|----------------------------|
|----7---5------7-----7--5---|
|----7---5------7-----7--5---|
|-00--------00-----0---------|
|----------------------------|

Riff C (verse)

|---------------------------------------------------------------------------|
|---------------------------------------------------------------------------|
|---------------------------------------------------------------------------|
|-----------------------------------------5555555555555555-3/555555555555555|
|-000000000000000-----0000000000000000--------------------------------------|
|-----------------3b5------------------3b5----------------------------------|

Riff D (prechorus)

|---------------------------------------------------------------------|
|---------------------------------------------------------------------|
|---------------------------------------------------------------------|
|-9--7--9----------9--7--9---99---9--7--9----------9--7--9--7--5--4---|
|-7--5--7--5-7p5---7--5--7---77---7--5--7--5-7p5---7--5--7--5--3--2---|
|----------------0-------------------------------0--------------------|

Riff E (chorus)

|---------------------------------------------------------------|
|---------------------------------------------------------------|
|---------------------------------------------------------------|
|-2--5--2-2---0h2h4h5---0h2h4h5---0h2h5--2-2-2-2---5---2---5---7|
|-0--5--0-0------------------------------0-0-0-0---3---0---3---5|
|---------------------------------------------------------------|

Riff F

|---------------------------------------------------------------|
|---------------------------------------------------------------|
|----3--5-----3--5-----3--5-----5/6/5---------------------------|
|-5--3--5--5--3--5--5--3--5--5--5/6/5---------------------------|
|-5--------5--------5--------5----------------------------------|
|---------------------------------------------------------------|

Guitar 1

----------------------------------------------------------------------------|
|---------------------------------------------------------------------------|
----5--7-----5--7-----5--7-----7/8/7------5--7------6--8-----7--9-----9/10/9|
7--5--7--7--5--7--7--5--7--7--7/8/7---7--5--7---8--6--8--9--7--9--9--9/10/9-|
7--------7--------7--------7----------7---------8--------9--------9---------|
----------------------------------------------------------------------------|

Guitar 2 (unison bends)

|---------------------------------------------------------------------------|
|10----------------------------------------------6--------7-----------------|
|12b14-------------------------------------------8b10-----9b11--------------|
|---------------------------------------------------------------------------|
|---------------------------------------------------------------------------|
|---------------------------------------------------------------------------|

Riff G

|---------------------------------------------------------------------------|
|---------------------------------------------------------------------------|
|---------------------------------------------------------------------------|
|---------4-------------------2-----------------------------7--9--6--4-----4|
|-2222222-2-let ring--2222222-0-let ring---------5----------5--7--4--1--4--2|
|----------------------------------------2222222-3-let ring-------------2---|

The notes for the solo are E, then A.
Twin guitar stuff

|---------------------------------------------------------------|
|-----15~--13--11--10~--11--10--8--6--10--8h10p8--6--5----------|
|---------------------------------------------------------------|
|-12------------------------------------------------------------|guitar 1
|---------------------------------------------------------------|
|---------------------------------------------------------------|
|                                                               |
|---------------------------------------------------------------|
|---------------------------------------------------------------|
|---------------------------------------------------------------|
|-7--------5------------3-------------2-------------------------|guitar 2
|-5---8----3--------3---1-------5-----0---5-------3--2----------|
|-----6-------------1-----------3---------3-------1--0----------|


|---------------------------------------------------------------|
|-----15~--13--15--10~--11--10--8--6--10--8h10p8--6--5----------|
|---------------------------------------------------------------|
|-12------------------------------------------------------------|Guitar 1
|---------------------------------------------------------------|
|---------------------------------------------------------------|
|                                                               |
|---------------------------------------------------------------|
|---------------------------------------------------------------|
|-----7~---5---7------------------------------------------------|
|------------------7~---8---7--5---3--7---5h7p5---3--2----------|Guitar 2
|-5~------------------------------------------------------------|
|---------------------------------------------------------------|
|                                                               |
|---------------------------------------------------------------|
|---------------------------------------------------------------|
|---------------------------------------------------------------|
|-7--------5------------3-------------2-------------------------|Guitar 3
|-5---8----3--------3---1-------5-----0---5-------3--2----------|(backing)
|-----6-------------1-----------3---------3-------1--0----------|

This one looks pretty messed up, but Guitar 1 plays the lower notes and

guitar 2 the higher

|----------------------------|   |-----------------------------------------|
|----------------------------|   |-----------------------------------------|
|----------------------------|   |--------------------------9~--7h9p7--5-4~|
|10-77-9-77-10-77-9-77-10-7-9|   |9-55-7-55-9-55-7-55-9-5-7----------------|
|----------------------------|X2 |-----------------------------------------|
|----------------------------|   |-----------------------------------------|
|                            |   |                                         |
|----------------------------|   |-----------------------------------------|
|----------------------------|   |--------------------------9~--7h9p7--5-9~|
|9--55-7--55-9-55-7-55-9--5-7|   |7-44-5-44-7-44-5-44-7-4-5----------------|
|----------------------------|X2 |-----------------------------------------|
|----------------------------|   |-----------------------------------------|
|----------------------------|   |-----------------------------------------|


|----------------------------|   |-----------------------------------------|
|----------------------------|   |-----------------------------------------|
|----------------------------|   |--------------------------9~///////21~---|
|10-77-9-77-10-77-9-77-10-7-9|   |9-55-7-55-9-55-7-55-9-5-7----------------|
|----------------------------|X2 |-----------------------------------------|
|----------------------------|   |-----------------------------------------|
|                            |   |                                         |
|----------------------------|   |-----------------------------------------|
|----------------------------|   |--------------------------9~/////////21~-|
|9--55-7--55-9-55-7-55-9--5-7|   |7-44-5-44-7-44-5-44-7-4-5----------------|
|----------------------------|X2 |-----------------------------------------|
|----------------------------|   |-----------------------------------------|
|----------------------------|   |-----------------------------------------|

The backing riff for that piece is:

|---------------------------------------------------------------|
|---------------------------------------------------------------|
|---------------------------------------------------------------|
|-2------------------------------------------9------------------|
|-0--let ring---3--------------5-------------7--let ring--------|
|---------------1--let ring----3--let ring----------------------|

Riff H (please correct this)

|--10-10--9-9--7-7--9-9--10--7---10-10--9-9--7-7--9-9--12--9----|
|--0--0---0-0--0-0--0-0--0---0---0--0---0-0--0-0--0-0--0---0----|
|---------------------------------------------------------------|
|---------------------------------------------------------------|
|---------------------------------------------------------------|
|---------------------------------------------------------------|
|                                                               |
|---------------------------------------------------------------|
|---------------------------------------------------------------|
|---------------------------------------------------------------|
|--4--mute-----------------------2---let ring-------------------|
|--2-----------------------------0------------------------------|
|---------------------------------------------------------------|

Then Repeat riff G and then riff E

That's mostly it, except for the solo and riff H, remember to listen the song
to get the rythm.  If somebody has a correction to make, please feel free to
mail me at jhidalgo@bitmed.med.uchile.cl
comments
We did not receive enough feedback on this tab! Please rate:
print report bad tab
1 2 3 4 5
I want to post or [tab]
guest
You may want to rate the tab now too:
select rating
Please do not post tabs as comments. Select "correction" instead!