Oops, an error
Loading. Please wait.

Judas tab

by Fozzy
3,055 views 57 this week
no commentswrite comment
1 2 3 4 5
x 5
add to favorites
×
Save as Personal and add changes to this tab that will be seen only by you. Learn more ›
×
You can save this tab as Personal to edit and correct it or add notes. All changes will be seen only by you. Learn more »
launch autoscroll
font size
0
reset
how to read this tab
guitar tuner
edit
Autoscroll
slow
fast
+/-
esc
set tempo
stop
Drop C (CGCFAD)

[Intro]
  -P.M-    -P.M-    -P.M-
D|-----------------------------------------|
A|-----------------------------------------|
F|-----------------------------------------|
C|-----------------------------------------|
G|-2-2-2-5--2-2-2-5--2-2-2-5--5-6-6-6-6-0--|
C|-2-2-2-5--2-2-2-5--2-2-2-5--5-6-6-6-6-0--|

  -P.M-    -P.M-    -P.M-
D|--------------------------------------------|
A|--------------------------------------------|
F|--------------------------------------------|
C|--------------------------------------------|
G|-2-2-2-5--2-2-2-5--2-2-2-5--5-6-6-6-6-0-2-0-|
C|-2-2-2-5--2-2-2-5--2-2-2-5--5-6-6-6-6-0-2-0-|


[Verse]
 -----------P.M-----------
D|-----------------------------|
A|-----------------------------|
F|-----------------------------|
C|-----------------------------| X2
G|-2-2-0-2-2---0-2-2-0-2-2--7--|
C|-2-2-0-2-2---0-2-2-0-2-2--7--|

D|------------------|
A|------------------|
F|------------------|
C|------------------|
G|-10-------7-------|
C|-10-------7-------|


[Pre-Chorus]
D|----------------------|
A|----------------------|
F|----------------------|
C|----------------------|
G|-2--4--5--7--2--4--7--|
C|-2--4--5--7--2--4--7--|

  -P.M-    -P.M-    -P.M-    -P.M-
D|-------------------------------------|
A|-------------------------------------|                                              
F|-------------------------------------|                                        
C|-------------------------------------|                                    
G|-2-2-2-5--2-2-2-5--2-2-2-5--2-2-2-5--|                                              
C|-2-2-2-5--2-2-2-5--2-2-2-5--2-2-2-5--|                                              

D|-------------------------------------------------------------------------------------------------|
A|-------------------------------------------------------------------------------------------------|
F|-11-11-11-11-11-11-11-11-11-11-11-11-11-11-11-11-12-12-12-12-12-12-12-12-12-12-12-12-12-12-12-12-|
C|-X--X--X--X--X--X--X--X--X--X--X--X--X--X--X--X--X--X--X--X--X--X--X--X--X--X--X--X--X--X--X--X--|
G|-9--9--9--9--9--9--9--9--9--9--9--9--9--9--9--9--10-10-10-10-10-10-10-10-10-10-10-10-10-10-10-10-|
C|-------------------------------------------------------------------------------------------------|

  -P.M-    -P.M-    -P.M-    -P.M-
D|-------------------------------------|
A|-------------------------------------|                                              
F|-------------------------------------|                                        
C|-------------------------------------|                                    
G|-2-2-2-5--2-2-2-5--2-2-2-5--2-2-2-5--|                                              
C|-2-2-2-5--2-2-2-5--2-2-2-5--2-2-2-5--|

D|----------------------------------------------------------------------------------|
A|----------------------------------------------------------------------------------|
F|-11-11-11-11-11-11-11-11-11-11-11-11-11-11-11-11-9-9-9-9-9-9-9-9-9-9-9-9-9-9-9-9--|
C|-X--X--X--X--X--X--X--X--X--X--X--X--X--X--X--X--X-X-X-X-X-X-X-X-X-X-X-X-X-X-X-X--|
G|-9--9--9--9--9--9--9--9--9--9--9--9--9--9--9--9--7-7-7-7-7-7-7-7-7-7-7-7-7-7-7-7--|
C|----------------------------------------------------------------------------------|


[Chorus]
D|---------------------------------------------------------------------------------|
A|---------------------------------------------------------------------------------|
F|---------------------------------------------------------------------------------|
C|---------------------------------------------------------------------------------|
G|-10-10-10-10-10-10-10-10-10-10-10-10-10-10-10-10-2-2-2-2-2-2-2-2-2-2-2-2-2-2-2-2-|
C|-10-10-10-10-10-10-10-10-10-10-10-10-10-10-10-10-2-2-2-2-2-2-2-2-2-2-2-2-2-2-2-2-|
                                                                                           X2
D|-----------------------------------------------------------------|
A|-----------------------------------------------------------------|
F|-7-7-7-7-7-7-7-7-7-7-7-7-7-7-7-7-7-7-7-7-7-7-7-7-7-7-7-7-7-7-7-7-|
C|-7-7-7-7-7-7-7-7-7-7-7-7-7-7-7-7-7-7-7-7-7-7-7-7-7-7-7-7-7-7-7-7-|
G|-5-5-5-5-5-5-5-5-5-5-5-5-5-5-5-5-5-5-5-5-5-5-5-5-5-5-5-5-5-5-5-5-|
C|-----------------------------------------------------------------|

  -P.M-    -P.M-    -P.M-
D|-----------------------------------------|
A|-----------------------------------------|
F|-----------------------------------------|
C|-----------------------------------------|
G|-2-2-2-5--2-2-2-5--2-2-2-5--5-6-6-6-6-0--|
C|-2-2-2-5--2-2-2-5--2-2-2-5--5-6-6-6-6-0--|

  -P.M-    -P.M-    -P.M-
D|--------------------------------------------|
A|--------------------------------------------|
F|--------------------------------------------|
C|--------------------------------------------|
G|-2-2-2-5--2-2-2-5--2-2-2-5--5-6-6-6-6-0-2-0-|
C|-2-2-2-5--2-2-2-5--2-2-2-5--5-6-6-6-6-0-2-0-|


[Verse]
 -----------P.M-----------
D|-----------------------------|
A|-----------------------------|
F|-----------------------------|
C|-----------------------------| X2
G|-2-2-0-2-2---0-2-2-0-2-2--7--|
C|-2-2-0-2-2---0-2-2-0-2-2--7--|

D|------------------|
A|------------------|
F|------------------|
C|------------------|
G|-10-------7-------|
C|-10-------7-------|


[Pre-Chorus]
D|----------------------|
A|----------------------|
F|----------------------|
C|----------------------|
G|-2--4--5--7--2--4--7--|
C|-2--4--5--7--2--4--7--|

  -P.M-    -P.M-    -P.M-    -P.M-
D|-------------------------------------|
A|-------------------------------------|                                              
F|-------------------------------------|                                        
C|-------------------------------------|                                    
G|-2-2-2-5--2-2-2-5--2-2-2-5--2-2-2-5--|                                              
C|-2-2-2-5--2-2-2-5--2-2-2-5--2-2-2-5--|                                              

D|-------------------------------------------------------------------------------------------------|
A|-------------------------------------------------------------------------------------------------|
F|-11-11-11-11-11-11-11-11-11-11-11-11-11-11-11-11-12-12-12-12-12-12-12-12-12-12-12-12-12-12-12-12-|
C|-X--X--X--X--X--X--X--X--X--X--X--X--X--X--X--X--X--X--X--X--X--X--X--X--X--X--X--X--X--X--X--X--|
G|-9--9--9--9--9--9--9--9--9--9--9--9--9--9--9--9--10-10-10-10-10-10-10-10-10-10-10-10-10-10-10-10-|
C|-------------------------------------------------------------------------------------------------|

  -P.M-    -P.M-    -P.M-    -P.M-
D|-------------------------------------|
A|-------------------------------------|                                              
F|-------------------------------------|                                        
C|-------------------------------------|                                    
G|-2-2-2-5--2-2-2-5--2-2-2-5--2-2-2-5--|                                              
C|-2-2-2-5--2-2-2-5--2-2-2-5--2-2-2-5--|

D|---------------------------------------------------------------------------------|
A|---------------------------------------------------------------------------------|
F|-11-11-11-11-11-11-11-11-11-11-11-11-11-11-11-11-9-9-9-9-9-9-9-9-9-9-9-9-9-9-9-9-|
C|-X--X--X--X--X--X--X--X--X--X--X--X--X--X--X--X--X-X-X-X-X-X-X-X-X-X-X-X-X-X-X-X-|
G|-9--9--9--9--9--9--9--9--9--9--9--9--9--9--9--9--7-7-7-7-7-7-7-7-7-7-7-7-7-7-7-7-|
C|---------------------------------------------------------------------------------|

                                              
[Chorus]
D|---------------------------------------------------------------------------------|
A|---------------------------------------------------------------------------------|
F|---------------------------------------------------------------------------------|
C|---------------------------------------------------------------------------------|
G|-10-10-10-10-10-10-10-10-10-10-10-10-10-10-10-10-2-2-2-2-2-2-2-2-2-2-2-2-2-2-2-2-|
C|-10-10-10-10-10-10-10-10-10-10-10-10-10-10-10-10-2-2-2-2-2-2-2-2-2-2-2-2-2-2-2-2-|
                                                                                           X2
D|-----------------------------------------------------------------|
A|-----------------------------------------------------------------|
F|-7-7-7-7-7-7-7-7-7-7-7-7-7-7-7-7-7-7-7-7-7-7-7-7-7-7-7-7-7-7-7-7-|
C|-7-7-7-7-7-7-7-7-7-7-7-7-7-7-7-7-7-7-7-7-7-7-7-7-7-7-7-7-7-7-7-7-|
G|-5-5-5-5-5-5-5-5-5-5-5-5-5-5-5-5-5-5-5-5-5-5-5-5-5-5-5-5-5-5-5-5-|
C|-----------------------------------------------------------------|


[Solo]
D|------------------|
A|------------------|
F|------------------|
C|------------------|
G|-2--10-9---5--7-4-|
C|-2--10-9---5--7-4-|                                        

D|------------------|
A|------------------|
F|-9---8---9---11---|
C|-9---8---9---11---|
G|-7---6---7---9----|
C|------------------|

D|-------------|
A|-------------|
F|-9---8---9---|
C|-9---8---9---|
G|-7---6---7---|
C|-------------|


[Pre-Chorus]
  -P.M-    -P.M-    -P.M-    -P.M-
D|-------------------------------------|
A|-------------------------------------|                                              
F|-------------------------------------|                                        
C|-------------------------------------|                                    
G|-2-2-2-5--2-2-2-5--2-2-2-5--2-2-2-5--|                                              
C|-2-2-2-5--2-2-2-5--2-2-2-5--2-2-2-5--|                                              

D|-------------------------------------------------------------------------------------------------|
A|-------------------------------------------------------------------------------------------------|
F|-11-11-11-11-11-11-11-11-11-11-11-11-11-11-11-11-12-12-12-12-12-12-12-12-12-12-12-12-12-12-12-12-|
C|-X--X--X--X--X--X--X--X--X--X--X--X--X--X--X--X--X--X--X--X--X--X--X--X--X--X--X--X--X--X--X--X--|
G|-9--9--9--9--9--9--9--9--9--9--9--9--9--9--9--9--10-10-10-10-10-10-10-10-10-10-10-10-10-10-10-10-|
C|-------------------------------------------------------------------------------------------------|

  -P.M-    -P.M-    -P.M-    -P.M-
D|-------------------------------------|
A|-------------------------------------|                                              
F|-------------------------------------|                                        
C|-------------------------------------|                                    
G|-2-2-2-5--2-2-2-5--2-2-2-5--2-2-2-5--|                                              
C|-2-2-2-5--2-2-2-5--2-2-2-5--2-2-2-5--|

D|---------------------------------------------------------------------------------|
A|---------------------------------------------------------------------------------|
F|-11-11-11-11-11-11-11-11-11-11-11-11-11-11-11-11-9-9-9-9-9-9-9-9-9-9-9-9-9-9-9-9-|
C|-X--X--X--X--X--X--X--X--X--X--X--X--X--X--X--X--X-X-X-X-X-X-X-X-X-X-X-X-X-X-X-X-|
G|-9--9--9--9--9--9--9--9--9--9--9--9--9--9--9--9--7-7-7-7-7-7-7-7-7-7-7-7-7-7-7-7-|
C|---------------------------------------------------------------------------------|


[Chorus]
D|---------------------------------------------------------------------------------|
A|---------------------------------------------------------------------------------|
F|---------------------------------------------------------------------------------|
C|---------------------------------------------------------------------------------|
G|-10-10-10-10-10-10-10-10-10-10-10-10-10-10-10-10-2-2-2-2-2-2-2-2-2-2-2-2-2-2-2-2-|
C|-10-10-10-10-10-10-10-10-10-10-10-10-10-10-10-10-2-2-2-2-2-2-2-2-2-2-2-2-2-2-2-2-|
                                                                                           X2
D|-----------------------------------------------------------------|
A|-----------------------------------------------------------------|
F|-7-7-7-7-7-7-7-7-7-7-7-7-7-7-7-7-7-7-7-7-7-7-7-7-7-7-7-7-7-7-7-7-|
C|-7-7-7-7-7-7-7-7-7-7-7-7-7-7-7-7-7-7-7-7-7-7-7-7-7-7-7-7-7-7-7-7-|
G|-5-5-5-5-5-5-5-5-5-5-5-5-5-5-5-5-5-5-5-5-5-5-5-5-5-5-5-5-5-5-5-5-|
C|-----------------------------------------------------------------|


[Outro]
  -P.M-    -P.M-    -P.M-
D|-----------------------------------------|
A|-----------------------------------------|
F|-----------------------------------------|
C|-----------------------------------------|
G|-2-2-2-5--2-2-2-5--2-2-2-5--5-6-6-6-6-0--|
C|-2-2-2-5--2-2-2-5--2-2-2-5--5-6-6-6-6-0--|

  -P.M-    -P.M-    -P.M-
D|--------------------------------------------|
A|--------------------------------------------|
F|--------------------------------------------|
C|--------------------------------------------|
G|-2-2-2-5--2-2-2-5--2-2-2-5--5-6-6-6-6-0-2-0-|
C|-2-2-2-5--2-2-2-5--2-2-2-5--5-6-6-6-6-0-2-0-|

            
            
Suggest correction
Creating personal tab
Creating personal tab
You can edit any tab online and save it as your Personal.

You can edit, replace or remove any tab part or add personal notes – all changes will be seen only by you.

Personal tabs can be accessed anytime from any device, even offline.
Learn more »
comments
print report bad tab
guest
You may want to rate the tab now too:
select rating
Wanna post a correction for this tab? Suggest correction