Oops, an error
Loading. Please wait.

Watch Me Shine Tab

4 views 1 this week
no commentswrite comment
1 2 3 4 5
3 more votes to show rating
add to favorites
launch autoscroll
font size
0
reset
how to read this tab
guitar tuner
Autoscroll
slow
fast
+/-
esc
set tempo
stop
Help us to improve Ultimate-Guitar.com Take our survey!
×
Author
Difficulty
novice
[Intro]
e|-------------------------------------------------------------------------|
B|---------6-6-------------5-5----------------8-8----------------6-6-------|
G|-------------------------------------------------------------------------|
D|-----7-7-----7-7-----7-7-----7-7-----10--10-----10--10-----7-7-----7-7---|
A|-5-5-------------5-5-------------8-8-------------------7-7---------------|
E|-------------------------------------------------------------------------|

e|-------------------------------------------------------------------|
B|---------5-5-------------5-5----------------8-8--------------------|
G|--------------------------------------------------------5-5--------|
D|-----7-7-----7-7-----7-7-----7-7-----10--10---------7-7-----7-7----|
A|-5-5-------------5-5-------------8-8------------5-5----------------|
E|-------------------------------------------------------------------|

e|------------------------------------------------------------------------|
B|------------------------------------------------------------------------|
G|------------------------------------------------------------------------|  x4
D|-7-7-7-7-7-7-7-7---10-10-10-10-10-10-10-10---10-10-10-10-10-10-10-10----|
A|-5-5-5-5-5-5-5-5---8--8--8--8--8--8--8--8----7--7--7--7--7--7--7--7-----|
E|-x-x-x-x-x-x-x-x---x--x--x--x--x--x--x--x----x--x--x--x--x--x--x--x-----|

[Verse]
e|-------------------------------------------------------------------------|
B|-------------------------------------------------------------------------|
G|-------------------------------------------------------------------------|
D|-7--------7-----------3---3---3---3-------------3---3---3---3------------|
A|-5--8--5--5--8--5---3-3-3-3-3-3-3-3-----------3-3-3-3-3-3-3-3------------|
E|----6--3-----6--3-------------------6-5-3-1~-------------------6-5-3-1~--|

[Chorus]
e|------------------------------------------------------------------------|
B|------------------------------------------------------------------------|
G|------------------------------------------------------------------------|  x2
D|-7-7-7-7-7-7-7-7---10-10-10-10-10-10-10-10---10-10-10-10-10-10-10-10----|
A|-5-5-5-5-5-5-5-5---8--8--8--8--8--8--8--8----7--7--7--7--7--7--7--7-----|
E|-x-x-x-x-x-x-x-x---x--x--x--x--x--x--x--x----x--x--x--x--x--x--x--x-----|

[Verse]
e|-------------------------------------------------------------------------|
B|-------------------------------------------------------------------------|
G|-------------------------------------------------------------------------|
D|-7--------7-----------3---3---3---3-------------3---3---3---3------------|
A|-5--8--5--5--8--5---3-3-3-3-3-3-3-3-----------3-3-3-3-3-3-3-3------------|
E|----6--3-----6--3-------------------6-5-3-1~------------------6-5-3-1~---|

[Chorus]
e|------------------------------------------------------------------------|
B|------------------------------------------------------------------------|
G|------------------------------------------------------------------------|  x4
D|-7-7-7-7-7-7-7-7---10-10-10-10-10-10-10-10---10-10-10-10-10-10-10-10----|
A|-5-5-5-5-5-5-5-5---8--8--8--8--8--8--8--8----7--7--7--7--7--7--7--7-----|
E|-x-x-x-x-x-x-x-x---x--x--x--x--x--x--x--x----x--x--x--x--x--x--x--x-----|

[Solo]
e|---------------------------------------------------------------------------------------|
B|----------------6------------6-6-----------6-5---5-3---3-5-6-8-5-6~--3-5-8-10-10-6-8~--|
G|-5-7--7-5-7-5-----7--7-5---5-----5-7---5-----------------------------------------------|
D|--------------7----------7---------------7-----7-----7---------------------------------|
A|---------------------------------------------------------------------------------------|
E|---------------------------------------------------------------------------------------|

e|--------------------------------------------------------------------------------------|
B|---5-6----5-6----6-8----6-8----8-10----8-10----10-11----10-11-13-15b-13-10-8-6b-------|
G|--------7------7------7------7-------7-------7--------7-------------------------------|
D|-7------------------------------------------------------------------------------------|
A|--------------------------------------------------------------------------------------|
E|--------------------------------------------------------------------------------------|

e|-12-13-12-10----12-13-12-10----12-13-12-10----12-13-12-10----15~--16-14-------16-17-16-------16-14-----|
B|-------------13-------------13-------------13-------------13------------16-14----------16-14-------14--|
G|-------------------------------------------------------------------------------------------------------|
D|-------------------------------------------------------------------------------------------------------|
A|-------------------------------------------------------------------------------------------------------|
E|-------------------------------------------------------------------------------------------------------|

e|-15~-13-10-----------5----------------------|
B|-----------13-10-8-6---8-6-5---5------------|
G|-----------------------------5---5-2-0-2~---|
D|--------------------------------------------|
A|--------------------------------------------|
E|--------------------------------------------|

[Chorus]
e|------------------------------------------------------------------------|
B|------------------------------------------------------------------------|
G|------------------------------------------------------------------------|  x4
D|-7-7-7-7-7-7-7-7---10-10-10-10-10-10-10-10---10-10-10-10-10-10-10-10----|
A|-5-5-5-5-5-5-5-5---8--8--8--8--8--8--8--8----7--7--7--7--7--7--7--7-----|
E|-x-x-x-x-x-x-x-x---x--x--x--x--x--x--x--x----x--x--x--x--x--x--x--x-----|

(I couldn't figure out the outro completely because part of it sounds like a lower tuning, but i did the
rest of the song in standard, so comment if you know what's missing)
[Outro]
e|--------------------------------|
B|--------------------------------|
G|--------------------------------|   x4
D|--------10-5-7--------10-10-7---|
A|--------8--3-5--------8--7--5---|
E|--------------------------------|


************************************

| x   Palm mute
| b   Bend

************************************
Suggest correction
Give kudos to tab author, rate the tab!
1 2 3 4 5
comments
print report bad tab
guest
You may want to rate the tab now too:
select rating
Wanna post a correction for this tab? Suggest correction