Oops, an error
Loading. Please wait.

Beauty And Madness Tab

version 1
version 1

Whole song

Interactive

11,638 views 6 this week
1 commentread comment
1 2 3 4 5
2 more votes to show rating
add to favorites
×
Save as Personal and add changes to this tab that will be seen only by you. Learn more ›
×
You can save this tab as Personal to edit and correct it or add notes. All changes will be seen only by you. Learn more »
save as personal
new!
launch autoscroll
font size
0
reset
how to read this tab
guitar tuner
Autoscroll
slow
fast
+/-
esc
set tempo
stop
Author
Song : Beauty and Madness
Artist : Fra Lippo Lippi
Tabbed by: Arnold (amasa@hotmail.com)
Here’s how I play it on the guitar, it was originally done on a piano.
It might not sound as it is on the CD, but anyway it works fine for me.
For any comments or corrections, just e-mail me

CHORDS USED:
         E A D G B e
Bbsus2/D X X 0 3 1 1
Bbsus2   X 1 3 3 1 1
Ebsus2   X X 1 3 4 1
Csus     X 3 5 5 6 x
Fsus     1 3 3 3 1 x
C/E      0 X X 0 1 0
Eb/G     3 X X 3 4 3

Intro:
   Bbsus2/D              Ebsus2                 Bbsus2/D   Csus        F  
e|-------1----------1----------1-----------1----------1-----------------------------------|
B|-----1---1------1---1------4---4-------4---4------1---1--------6--4----------------1----|
G|---3----------3----------3-----------3----------3------------5--------------2--2h3------|
D|-0----------0----------1-----------1----------0------------5--------------3-------------|
A|---------------------------------------------------------3--------------3---------------|
E|----------------------------------------------------------------------1-----------------|

Verse 1:
   Bbsus2/D              Ebsus2
e|-------1----------1-------------1------------------1--------|
B|-----1---1------1------------4-----4-----------4---------4--|
G|---3----------3-----------3----------------3----------------|
D|-0----------0----------1----------------1-------------------|
A|------------------------------------------------------------|
E|------------------------------------------------------------|
   Over       there      just beneath the moon     There’s a

    Bbsus2/D   Csus       F
e|--------1----------------------------------|
B|------1---1--------6-4----------------1----|
G|----3------------5-------------2--2h3------|
D|--0------------5-------------3-------------|
A|-------------3-------------3---------------|
E|-------------------------1-----------------|
    man with a burden to keep            

       Bbsus2/D              Ebsus2
e|-----------1----------1-------------1------------------1--------|
B|---------1---1------1------------4-----4-----------4---------4--|
G|-------3----------3-----------3----------------3----------------|
D|-----0----------0----------1----------------1-------------------|
A|----------------------------------------------------------------|
E|----------------------------------------------------------------|
   And sleep will fall,      washouts, rags ‘n paperbags

    Bbsus2/D   Csus       F
e|--------1-----------------------------------|
B|------1---1--------6--4----------------1----|
G|----3------------5--------------2--2h3------|
D|--0------------5--------------3-------------|
A|-------------3--------------3---------------|
E|--------------------------1-----------------|
    Homes and lives passing by

Chorus:

   Ebsus2                                  Fsus
e|-----------1---------------------1---------------------------|
B|-------4-------4--------------4-----4-------------------1----|
G|----3---------------------3----------------------2--2h4------|
D|-1---------------------1-----------------------3-------------|
A|--------------------------------------------3----------------|
E|-----------------------------------------1-------------------|
        Who will see the beauty in your life

   Ebsus2       Bbsus2/D Csus      Fsus     Bbsus2
e|------------------------------------------------------------|
B|----------4-------------------------------------1---------1-|
G|------3------------3--------5-----------------3---3-----3---|
D|--1-----------0------------5----------3-----3---------3-----|
A|-----------------------3------------3-----1---------1-------|
E|---------------------------------1--------------------------|
   Who will be there to hear you when you call

   Ebsus2                                  Fsus
e|-----------1---------------------1--------------------------|
B|-------4-------4--------------4-----4------------------1----|
G|----3---------------------3----------------------2-2h4------|
D|-1---------------------1-----------------------3------------|
A|--------------------------------------------3---------------|
E|-----------------------------------------1------------------|
       Who will see the madness in your life

   G#                        Bbsus2/D         Ebsus2
e|-----------------------------------------------------1-------|
B|-------------------------------------1------------4----4-----|
G|-------------------5-------------3------3------3-------------|
D|--------------6------------0----------------1----------------|
A|----------6--------------------------------------------------|
E|------4------------------------------------------------------|
   And who will be there to catch you if you fall?

   Ebsus2                 Bbsus2/D   Csus         F  
e|-------1-----------1----------1-----------------------------------|
B|-----4---4-------4---4------1---1--------6--4----------------1----|
G|---3-----------3----------3------------5--------------2--2h3------|
D|-1-----------1----------0------------5--------------3-------------|
A|-----------------------------------3--------------3---------------|
E|------------------------------------------------1-----------------|

Verse 2:
       Bbsus2/D              Ebsus2
e|-----------1----------1-------------1-------------------1--------|
B|---------1---1------1------------4-----4-----------4----------4--|
G|-------3----------3-----------3----------------3-----------------|
D|-----0----------0----------1----------------1--------------------|
A|-----------------------------------------------------------------|
E|-----------------------------------------------------------------|
   Now dreams run wild       as lovers find their way    through the

    Bbsus2/D       Csus            Fsus
e|--------1------------------------------------------|
B|------1---1-------------6-4-------------------1----|
G|----3----------------5-----------------2--2h3------|
D|--0----------------5-----------------3-------------|
A|-----------------3-----------------3---------------|
E|---------------------------------1-----------------|
    night,  not a  care  in the world

       Bbsus2/D                   Ebsus2
e|-----------1------------1----------------1------------------1--------|
B|---------1---1--------1---------------4-----4-----------4---------4--|
G|-------3-----------3---------------3----------------3----------------|
D|-----0----------0---------------1----------------1-------------------|
A|---------------------------------------------------------------------|
E|---------------------------------------------------------------------|
   And over       there where the twinkling of the lights     Harbour

    Bbsus2/D   Csus               F
e|--------1-----------------------------------------|
B|------1---1------------6--4------------------1----|
G|----3--------------5------------------2--2h3------|
D|--0-------------5-------------------3-------------|
A|-------------3--------------------3---------------|
E|--------------------------------1-----------------|
    lights say goodnight one more time

Chorus:

   Ebsus2                                  Fsus
e|-----------1---------------------1---------------------------|
B|-------4-------4--------------4-----4-------------------1----|
G|----3---------------------3----------------------2--2h4------|
D|-1---------------------1-----------------------3-------------|
A|--------------------------------------------3----------------|
E|-----------------------------------------1-------------------|
        Who will see the beauty in your life

   Ebsus2       Bbsus2/D Csus      Fsus     Bbsus2
e|------------------------------------------------------------|
B|----------4-------------------------------------1---------1-|
G|------3------------3--------5-----------------3---3-----3---|
D|--1-----------0------------5----------3-----3---------3-----|
A|-----------------------3------------3-----1---------1-------|
E|---------------------------------1--------------------------|
   Who will be there to hear you when you call

   Ebsus2                                  Fsus
e|-----------1---------------------1--------------------------|
B|-------4-------4--------------4-----4------------------1----|
G|----3---------------------3----------------------2-2h4------|
D|-1---------------------1-----------------------3------------|
A|--------------------------------------------3---------------|
E|-----------------------------------------1------------------|
       Who will see the madness in your life

   G#                        Bbsus2/D         Ebsus2
e|-----------------------------------------------------1-------|
B|-------------------------------------1------------4----4-----|
G|-------------------5-------------3------3------3-------------|
D|--------------6------------0----------------1----------------|
A|----------6--------------------------------------------------|
E|------4------------------------------------------------------|
   And who will be there to catch you if you fall?

   C/E       F         Eb/G      G#        Eb/G      Fm        Bbsus2/D   Ebsus2
e|-------0---------1---------3---------4---------3---------1---------1----------1-|
B|-----1---1-----1---1-----4---4-----4---4-----4---4-----1---1-----1---1------4---|
G|---0---------2---------3---------5---------3---------1---------3----------3-----|
D|-------------------------------------------------------------0----------1-------|
A|--------------------------------------------------------------------------------|
E|-0---------1---------3---------4---------3---------1----------------------------|
                                                                             Don’t you fall

   C/E      F        Eb/G      G#       Eb/G     Fm       Bbsus2/D Ebsus2   Fsus
e|-------0--------1--------3---------4--------3--------1--------1---------1---------------|
B|-----1---1----1---1----4---4-----4---4----4---4----1---1----1---1-----4---------------1-|
G|---0--------2--------3---------5--------3--------1--------3---------3-----------2—2h3---|
D|--------------------------------------------------------0---------1-----------3---------|
A|----------------------------------------------------------------------------3-----------|
E|-0--------1--------3---------4--------3--------1--------------------------1-------------|

Chorus:

   Ebsus2                                  Fsus
e|-----------1---------------------1---------------------------|
B|-------4-------4--------------4-----4-------------------1----|
G|----3---------------------3----------------------2--2h4------|
D|-1---------------------1-----------------------3-------------|
A|--------------------------------------------3----------------|
E|-----------------------------------------1-------------------|
        Who will see the beauty in your life

   Ebsus2       Bbsus2/D Csus      Fsus     Bbsus2
e|------------------------------------------------------------|
B|----------4-------------------------------------1---------1-|
G|------3------------3--------5-----------------3---3-----3---|
D|--1-----------0------------5----------3-----3---------3-----|
A|-----------------------3------------3-----1---------1-------|
E|---------------------------------1--------------------------|
   Who will be there to hear you when you call

   Ebsus2                                  Fsus
e|-----------1---------------------1--------------------------|
B|-------4-------4--------------4-----4------------------1----|
G|----3---------------------3----------------------2-2h4------|
D|-1---------------------1-----------------------3------------|
A|--------------------------------------------3---------------|
E|-----------------------------------------1------------------|
       Who will see the madness in your life

   G#                        Bbsus2/D         Ebsus2
e|-----------------------------------------------------1-------|
B|-------------------------------------1------------4----4-----|
G|-------------------5-------------3------3------3-------------|
D|--------------6------------0----------------1----------------|
A|----------6--------------------------------------------------|
E|------4------------------------------------------------------|
   And who will be there to catch you if you fall?

Outro:
   Bbsus2/D       Csus            F             Bb
e|----------1-----------------------------------1--------------|
B|-------1-----1-----------4--------------------3--------------|
G|----3-----------------5------------------2----3--------------|
D|-0-----------------5------------------3-------3--------------|
A|----------------3------------------3----------1--------------|
E|--------------------------------1----------------------------|
Suggest correction
Give kudos to tab author, rate the tab!
1 2 3 4 5
comments
print report bad tab
1 comment total.
0 reply
agapaosoe 31 Jun 17, 2010 11:56 AM

mukhang ang layo ata sa tuning ah. .nakakahiya nmnng tugtugin to.pro keep up the work parin. .

guest
You may want to rate the tab now too:
select rating
Wanna post a correction for this tab? Suggest correction