Oops, an error
Loading. Please wait.

Rise chords

by Frames
1,558 views 1 this week
3 commentsread comments
1 2 3 4 5
x 5
add to favorites
×
Save as Personal and add changes to this tab that will be seen only by you. Learn more ›
×
You can save this tab as Personal to edit and correct it or add notes. All changes will be seen only by you. Learn more »
launch autoscroll
font size
0
reset
transpose
0
reset
display chords
guitar tuner
edit
Autoscroll
slow
fast
+/-
esc
set tempo
stop
Strumming
There is no strumming pattern for this song yet. and get +5 IQ
Mind you, this song can be played in both standard tuning (preferably no capo or 
capo on 3rd. fret/8th. fret) as well as half tuning (preferably capo on 7th. fret).

Itis not to a "tee", but (so far) at least I've gone and tabbed it out to the best of my ability.

Please, feel free to correct potential err's.


Videos I used (for reference):

http://www.youtube.com/watch?v=ye-SVhV1_NM
http://www.youtube.com/watch?v=9uw1kTxj8KU


Video tutorial is coming soon... 


Intro:

E |-----0-------0-----0----------0--0------0(pertaining the two last chords| 
B |-----0-------0-----0----------0--0------0----------------------------| 
G |-----0-------0-----0----------0--0------0----------------------------| 
D |-----2-------2-----2----------0--0--or--x----------------------------| 
A |-----2-------2-----2--3--2p0--x--x------3----------------------------| 
E |--0--0--0h2--x--0--0----------3--2------0----------------------------| 

Verse:

E |-----0-------0-----0----0-----0--0-----------------------------------| 
B |-----0-------0-----0----0-----0--0-----------------------------------| 
G |-----0-------0-----0----0-----0--0-----------------------------------| 
D |-----2-------2-----2----2-----0--0-----------------------------------| 
A |-----2-------2-----2----2-----x--x-----------------------------------| 
E |--0--0--0h2--x--0--0--0h2-----3--2-----------------------------------| 

Chorus:

E |--0--------0-------0------0-------0--0-------------------------------| 
B |--1-1p0h1--0-------3------0-------0--0-------------------------------| 
G |--2--------0-------2------0-------0--0-------------------------------| 
D |--2--------2-or-0--0------x-------0--0-------------------------------| 
A |--0--------2-------0------3-------x--x-------------------------------| 
E |--x--------x-------x------0-------3--2-------------------------------|

Interlude/solo nr. 1 (there are two ways of doing this, so I have found):

E |---0--0--0--0--0--0--0--0-------------------0--0--0--0--0--0--0--0---| 
B |---0--0--0--0--0--0--0--0-------------------0--0--0--0--0--0--0--0---| 
G |---0--0--0--0--0--0--0--0-------------------0--0--0--0--0--0--0--0---| 
D |---2--2--2--2--2--2--2--2-------------------2--2--2--2--2--2--2--2---| 
A |---2--x--x--2--3--2--0--x-------------------2--0--x--2--3--2--0--x---| 
E |---0--2--3--x--x--x--x--2-------------------x--x--3--x--x--x--x--2---| 

Interlude/solo nr. 2 (part 1):

E |---0--0--0--0--0--0--0--0-----------------------------0--0--0--------|
B |---0--0--0--0--0--0--0--0-----------------------------0--0--0--------|
G |---0--0--0--0--0--0--0--2-----------------------------0--0--2--------|
D |---2--2--2--4--2--4--2--0-----------------------------4--2--0--------|
A |---2--x--x--5--3--5--3--x-----------------------------x--3--x--------|
E |---0--2--3--5--3--5--3--3--or--(three latter chords)--3--3--3--------|



Interlude/solo nr. 2 (part 2):

E |--0--0--0--0--0--0--0--0---------------------------------------------|
B |--0--0--0--0--0--0--0--0---------------------------------------------|
G |--0--0--0--0--0--0--0--0---------------------------------------------|
D |--2--2--2--4--2--4--7--9---------------------------------------------|
A |--2--x--x--5--3--5--x--10--------------------------------------------|
E |--0--2--3--5--3--5--8--0--or-x---------------------------------------|


Back to chorus...


Back to Verse...


Ending/outro (at the very end of the "verse"):


E |--0--0--0---0--------0-------0--0--0--0------------------------------|
B |--0--0--0---0--------0-------0--0--0--0------------------------------|
G |--0--0--0---0--------0-------0--0--0--0------------------------------|
D |--2--0--0---5s4--or--2-------x--0--0--5s4----------------------------|
A |--3--x--x---2--------2-------3--x--x--2------------------------------|
E |--3--3--2---0--------0h2--3--0--3--2--0------------------------------|

            
            
Suggest correction
Creating personal tab
Creating personal tab
You can edit any tab online and save it as your Personal.

You can edit, replace or remove any tab part or add personal notes – all changes will be seen only by you.

Personal tabs can be accessed anytime from any device, even offline.
Learn more »
comments
print report bad tab
3 comments total.
0 reply
LetThisEndNoah 101 Oct 19, 2013 01:02 PM

Here is my video my tutorial, as promised:

http://www.youtube.com/watch?v=o58YVA10IVg

0 reply
LetThisEndNoah 101 Dec 26, 2013 11:52 AM

A few modifications...

Verse (another way to play it):

E |-----0-------0-----x------x------x---------------------------------|
B |-----0-------0-----0------x------0---------------------------------|
G |-----0--0----0-----0------0------0---------------------------------|
D |-----2----4--4-----0------2------0---------------------------------|
A |-----2-------2--3--3------2------x---------------------------------|
E |--0--0-------0-----x------0--0h2-3---------------------------------|

Chorus (right before the solo kicks in):

E |--0--------3--0-----x--0--0--0--0--0-------------------------
B |--1-1p0h1-----0-----3--0--0--0--0--0-------------------------
G |--2-----------0-----2--0--0--0--0--0-------------------------
D |--2-----------2--0--0--0--0--0--0--0-------------------------
A |--0-----------2-----0--3--2--5--x--x-------------------------
E |--x-----------0-----x--x--x--x--5--6-------------------------

Outro (ver. 2):

Ending/outro (at the very end of the "verse"):

E |--x--0------------------------------x------------|
B |--x--0------------------------------x------------|
G |--0--0------------------------------0-----0------|
D |--0--0------------------------------0-----5s4----|
A |--3--2------------------------------5-----2------|
E |--x--(x)-play muted string softly---x-----0------|

0 reply
LetThisEndNoah 101 Dec 27, 2013 10:39 AM

Verse (yet another way to play it):

E |-----0---------x---------------------------------------------|
B |-----0---------0---------------------------------------------|
G |-----0---------0---------------------------------------------|
D |-----2---------0---------------------------------------------|
A |-----2---------3---------------------------------------------|
E |--0--0--2--3---x---------------------------------------------|

guest
You may want to rate the tab now too:
select rating
Wanna post a correction for this tab? Suggest correction