Oops, an error
Loading. Please wait.

23 Days Tab

version 1
version 1

Whole song

Interactive

13,451 views 1 this week
1 commentread comment
1 2 3 4 5
1 last vote to show rating
add to favorites
launch autoscroll
font size
0
reset
how to read this tab
guitar tuner
Autoscroll
slow
fast
+/-
esc
set tempo
stop
Help us to improve Ultimate-Guitar.com Take our survey!
×
---------------------------------------------------------------
                "23 Days" by Framing Hanley
---------------------------------------------------------------

WakeTabs@gmail.com                             15 November 2008
Feedback is expected and appreciated

Track #7 from "The Moment" LP

The lead part is often different on either speaker, so I've marked the parts 
where the two speakers diverge.

                                         
Tuning:                                       C# G# C# F# A# D#
=-=-=-=-=-=-=-=-=-=-=-=-=-=-=-=-=-=-=-=-=-=-=-=-=-=-=-=-=-=-=-=

Lead
_____________     
 Main Riff  /
 @ 0:00    / 
                                      Right Side Speaker
e|---15----18----17----15-18----15-17------------------|
B|------15----15----15-------15-------15-18-15-18-15---|
G|-----------------------------------------------------|
D|-----------------------------------------------------| x6
A|-----------------------------------------------------|
E|-----------------------------------------------------|

                                      Left Side Speaker
e|-----------------------------------------------------|
B|-----------------------------------------------------|
G|---12----15----14----12-15----12-14------------------|
D|------12----12----12-------12-------12-15-12-15-12---| x6
A|-----------------------------------------------------|
E|-----------------------------------------------------|

__________
 Verse I /
 @ 0:27 /
"...I need to feel you again..."
e|--------------------------------------------------|
B|--------------------------------------------------|
G|---14----------15----------17----------19---------|
D|---x--(x16)----x--(x16)----x--(x16)----x--(x16)---|
A|---12----------13----------15----------17---------|
E|--------------------------------------------------|

______________
 Pre-Chorus  /
 @ 0:36     /
"...in your eyes I thought I saw tomorrow..."
e|-----------------------------------------------------------|
B|-----------------------------------------------------------|
G|---5----------8--------------------------------------------|
D|---x-(x30)----x-(x16)--------------------------------------|
A|---3----------6----------1-1-1-1-1-1-1-1---11111-0-0-0-0---|
E|-------------------------1-1-1-1-1-1-1-1---11111-0-0-0-0---|

__________
 Chorus  /
 @ 0:49 /
"...can we pretend it's always been okay?..."
e|------------------------------------------------------|
B|------------------------------------------------------|
G|--14---------15----------14---------15---------17-----|
D|--x--(x6)----x--(x10)----x--(x6)----x--(x6)----x--(x4)| x3
A|--12---------13----------12---------13---------15-----|
E|------------------------------------------------------|

 @ 1:05
"...lost it all, lost it all..."
e|------------------------------------------------------|
B|------------------------------------------------------|
G|------------------------------17-17-17-14-14-15-15----|
D|---------------------15-15-15-------------------------|
A|---15-15-15-17-17-17----------------------------------|
E|------------------------------------------------------|

e|------------------------------------------------------|
B|------------------------------------------------------|
G|------------------------------17-17-17-14~~~15~~~~~~~~|
D|---------------------15-15-15-------------------------|
A|---15-15-15-17-17-17----------------------------------|
E|------------------------------------------------------|

___________
 Verse II /
 @ 1:20  /
"...hold your breath..."              Right Side Speaker
e|---15----18----17----15-18----15-17------------------|
B|------15----15----15-------15-------15-18-15-18-15---|
G|-----------------------------------------------------|
D|-----------------------------------------------------| x4
A|-----------------------------------------------------|
E|-----------------------------------------------------|

                                       Left Side Speaker
e|-----------------------------------------------------|
B|-----------------------------------------------------|
G|---12----15----14----12-15----12-14------------------|
D|------12----12----12-------12-------12-15-12-15-12---| x4
A|-----------------------------------------------------|
E|-----------------------------------------------------|

______________
 Pre-Chorus  /
 @ 1:30     /
"...in your eyes I thought I saw tomorrow..."
e|-----------------------------------------------------------|
B|-----------------------------------------------------------|
G|---5----------8--------------------------------------------|
D|---x-(x30)----x-(x16)--------------------------------------|
A|---3----------6----------1-1-1-1-1-1-1-1---11111-0-0-0-0---|
E|-------------------------1-1-1-1-1-1-1-1---11111-0-0-0-0---|

__________
 Chorus  /
 @ 1:44 /
"...can we pretend it's always been okay?..."
e|------------------------------------------------------|
B|------------------------------------------------------|
G|--14---------15----------14---------15---------17-----|
D|--x--(x6)----x--(x10)----x--(x6)----x--(x6)----x--(x4)| x3
A|--12---------13----------12---------13---------15-----|
E|------------------------------------------------------|

 @ 2:00
"...lost it all, lost it all..."
e|------------------------------------------------------|
B|------------------------------------------------------|
G|------------------------------17-17-17-14-14-15-15----|
D|---------------------15-15-15-------------------------|
A|---15-15-15-17-17-17----------------------------------|
E|------------------------------------------------------|

e|------------------------------------------------------|
B|------------------------------------------------------|
G|------------------------------17-17-17-14~~~15~~~~~~~~|
D|---------------------15-15-15-------------------------|
A|---15-15-15-17-17-17----------------------------------|
E|------------------------------------------------------|

__________
 Bridge  /
 @ 2:05 /
"...Let's re-introduce our shadows..."
e|---------------------------------------------------------------------|
B|---------------------------------------------------------------------|
G|---------------------------------------------------------------------|
D|---1---1-1--1------10---10-10--10------5---5-5--5------0-5-0-5-0-5---|
A|---1---1-1--1------10---10-10--10------5---5-5--5------0-5-0-5-0-5---|
E|---1---1-1--1------10---10-10--10------5---5-5--5------0-5-0-5-0-5---|
 @ 2:16
"...the familiar taste of your body..."
e|-------------------------------------------------|
B|-------------------------------------------------|
G|---10----------12----------7----------10---------|
D|---x--(x16)----x--(x16)----x-(x16)----x--(x16)---|
A|---8-----------10----------5----------8----------|
E|-------------------------------------------------|

__________
   Fill  /
 @ 2:27 /
                                      Right Side Speaker
e|---15----18----17----15-18----15-17------------------|
B|------15----15----15-------15-------15-18-15-18-15---|
G|-----------------------------------------------------|
D|-----------------------------------------------------| x2
A|-----------------------------------------------------|
E|-----------------------------------------------------|

                                       Left Side Speaker
e|-----------------------------------------------------|
B|-----------------------------------------------------|
G|---12----15----14----12-15----12-14------------------|
D|------12----12----12-------12-------12-15-12-15-12---| x2
A|-----------------------------------------------------|
E|-----------------------------------------------------|

_______________
 Alt. Chorus  /
 @ 2:33      /
                                      Right Side Speaker
e|------------------------------20-20-20-17-17-18-18---|
B|---------------------18-18-18------------------------|
G|---17-17-17-19-19-19---------------------------------|
D|-----------------------------------------------------| x4
A|-----------------------------------------------------|
E|-----------------------------------------------------|
 
   @ 2:43                                Right Side Speaker
e|--------------------------------------------------------|
B|--------------------------------------------------------|
G|------------------------------17-17-17-14h15p14---------|
D|---------------------15-15-15-------------------15------| x11 END
A|---15-15-15-17-17-17-------------------------------17---|
E|--------------------------------------------------------|




   @ 2:33                              Left Side Speaker
e|-----------------------------------------------------|
B|-----------------------------------------------------|
G|------------------------------17-17-17-14-14-15-15---|
D|---------------------15-15-15------------------------| x4
A|---15-15-15-17-17-17---------------------------------|
E|-----------------------------------------------------|

   @ 2:43
e|------------------------------20-20-20-17-17-18-18---|
B|---------------------18-18-18------------------------|
G|---17-17-17-19-19-19---------------------------------|
D|-----------------------------------------------------| x4
A|-----------------------------------------------------|
E|-----------------------------------------------------|

   @ 2:54
e|---------------20--17h18p17----------------------|
B|-----------18---------------18-------------------|
G|---17--19----------------------19--19--17--17----|
D|-------------------------------------------------| x1
A|-------------------------------------------------|
E|-------------------------------------------------|

   @ 2:59
e|------------------------------20-20-20-17-17-18-18---|
B|---------------------18-18-18------------------------|
G|---17-17-17-19-19-19---------------------------------|
D|-----------------------------------------------------| x2
A|-----------------------------------------------------|
E|-----------------------------------------------------|

   @ 3:05
e|---------------20--17h18p17--------------------20--17h18p17-----------------|
B|-----------18---------------18-------------18---------------18--------------|
G|---17--19----------------------19--17--19----------------------19-17~~~19~~~|
D|----------------------------------------------------------------------------| END
A|----------------------------------------------------------------------------|
E|----------------------------------------------------------------------------|



=-=-=-=-=-=-=-=-=-=-=-=-=-=-=-=-=-=-=-=-=-=-=-=-=-=-=-=-=-=-=-=-=-=-=-=-=-=-=-=






Rhythm
_________         ___________         ____________
  Intro /           Verse I /           Verse II /
@ 0:06 /              0:17 /      &       1:11  /
e|----------------------------------------------|
B|----------------------------------------------|
G|------------------------------------------5---|
D|------------------------------------------3---|
A|---5-5-5-5-5-555-5------5-5-5-5-5-555-5---3---|
E|---5-5-5-5-5-555-5------5-5-5-5-5-555-5---3---|

e|-----------------------------------------------------|
B|-----------------------------------------------------|
G|-----------------------------------------------------|
D|-------------------------------------------------0---|
A|---1-1-1-1-1-111-1------1-1-1-1-1-111-1---11111--0---|
E|---1-1-1-1-1-111-1------1-1-1-1-1-111-1---11111--0---|

_____________________
  Pre-Chorus I & II /
  @ 0:38 & 1:32    /
e|-----------------------------------------------------------|
B|-----------------------------------------------------------|
G|---5----------8--------------------------------------------|
D|---x-(x30)----x-(x16)--------------------------------------|
A|---3----------6----------1-1-1-1-1-1-1-1---11111-0-0-0-0---|
E|-------------------------1-1-1-1-1-1-1-1---11111-0-0-0-0---|

__________________
  Chorus I & II  /
  @ 0:49 & 1:44 /
e|----------------------------------------------------------|
B|----------------------------------------------------------|
G|----------------------------------------------------------|
D|---8-----------5-----------8-----------5-----------3--3---|
A|---8-(x32)-----5-(x32)-----8-(x32)-----5-(x16)-----3--3---|
E|---8-----------5-----------8-----------5-----------3--3---|

___________
  Bridge  /
 @ 2:05  /
e|---------------------------------------------------------------------|
B|---------------------------------------------------------------------|
G|---------------------------------------------------------------------|
D|---1---1-1--1------10---10-10--10------5---5-5--5------0-5-0-5-0-5---|
A|---1---1-1--1------10---10-10--10------5---5-5--5------0-5-0-5-0-5---|
E|---1---1-1--1------10---10-10--10------5---5-5--5------0-5-0-5-0-5---|

e|-------------------------------------------------------------|
B|-------------------------------------------------------------|
G|---------------------------------------7----------5----------|
D|---1---1-1--1------10---10-10--10------0-(x16)----3--(x16)---|
A|---1---1-1--1------10---10-10--10------0----------3----------|
E|---1---1-1--1------10---10-10--10------0----------3----------|

__________
   Fill  / 
 @ 2:27 /
e|---------------------------------------|
B|---------------------------------------|
G|---------------------------------------|
D|---5-5--------5-5----5-5-5-5-5-5-5-5---|
A|---5-5--------5-5----5-5-5-5-5-5-5-5---|
E|---5-5--------5-5----5-5-5-5-5-5-5-5---|

_______________
  Alt. Chorus /
  @ 2:32     /
e|-------------------------------------------------------------|
B|-------------------------------------------------------------|
G|-------------------------------------------------------------|
D|---8-----------5-----------8-----------5-----------3---------|
A|---8-(x32)-----5-(x32)-----8-(x32)-----5-(x16)-----3-(x16)---|
E|---8-----------5-----------8-----------5-----------3---------|
  @ 2:54
e|----------------------------------------------------------------|
B|----------------------------------------------------------------|
G|----------------------------------------------------------------|
D|---1----------10----------5----------1----------10----------0---| END
A|---1-(x16)----10-(x16)----5-(x32)----1-(x16)----10-(x16)----0---|
E|---1----------10----------5----------1----------10----------0---|


Suggest correction
Give kudos to tab author, rate the tab!
1 2 3 4 5
comments
print report bad tab
1 comment total.
+1 reply
damien-fr 128 Feb 15, 2009 12:32 AM

Great work, as always.

guest
You may want to rate the tab now too:
select rating
Wanna post a correction for this tab? Suggest correction