Oops, an error
Loading. Please wait.

Fool With Dreams Bass Tab

535 views 1 this week
no commentswrite comment
1 2 3 4 5
please rate
add to favorites
launch autoscroll
font size
0
reset
guitar tuner
Autoscroll
slow
fast
+/-
esc
set tempo
stop
Help us to improve Ultimate-Guitar.com Take our survey!
×
Author
Difficulty
Tabbed by: Matt
Email: May92d@yahoo.com
Song: Fool With Dreams
Artist: Framing Hanley
Album: A Promise To Burn
Tuning: Standard (E, A, D, G) 


Verse1
Come in at 0:06
G |-----------------8~---------------------------------------------------|
D |--6---------6~-------6h8--6---------6~---8-10----6---------6/8--6-5-6-|
A |6---4~---4h6------------6---4~---4h6-----------6---4~---4h6-----------|
E |----------------------------------------------------------------------|

G |-------------------------------------------------------------------------|
D |4h640---6---------6~-----------------------------------------------------|
A |------6---4~---4h6----------8~---6~--------------8~---6~-----------------|
E |--------------------------------------4~-------46----------4~--------8~--|

G |------------|
D |------------|
A |------------|
E |--9~--------|

Chorus1
G |-------------------------------------------------------------------------|
D |-------------------------------------------------------------------------|
A |---------4444444-8888-6666-44444444----------44444444-88810-6663-44444444|
E |44444444----------------------------44444444-----------------------------|

G |--------|
D |--------|
A |4444444-|
E |--------|

Verse2
G |-----------------8-------------------------------------------------------|
D |--6---------6~-----8-6-5---6---------6~---8-10h1110---6------6/8-6-5-6-5-|
A |6---4~---4h6-------------6---4~---4h6---------------6---4~---------------|
E |-------------------------------------------------------------------------|

G |-----------------------------------------------------------------------|
D |----6---------6~-------------------------------------------------------|
A |0-6---4~---4h6----------8~---6~--------------8~---6~-------------------|
E |----------------------------------4~-------46----------4~--------8~----|

G |-----------|
D |-----------|
A |-----------|
E |9~---------|

Chorus2
G |-------------------------------------------------------------------------|
D |-------------------------------------------------------------------------|
A |---------4444444-8888-6666-44444444----------44444444-88810-6663-44444444|
E |44444444----------------------------44444444-----------------------------|

G |-------------------|
D |-------------------|
A |8~---6~---4~-------|
E |-------------------|

Bridge
Come in at 2:32
G|------------------------------------------------------|
D|------------------------------------------------------|
A|11111-43-----------11111-43-----------11111-43--------|
E|---------1~1111111----------4~4444444----------1~11111|

G |---------------|
D |---------------|
A |---11111111-4~-|
E |11-------------|

Pre Chorus
Come in at 3:11
G |-------------------------------------------|
D |\654---------------------------------------|
A |----6~------4h64--88~--66~--3-444444444444-|
E |-------------------------------------------|

Chorus3
G |-----------------------------------------------------------------------|
D |-------------------------------------------------------56--56----------|
A |---------4444444-8888-6666-44444444---------44444444-88--66--444444444-|
E |44444444----------------------------44444444---------------------------|

G |-------------------|
D |-------------------|
A |8~---6~---4~-------|
E |-------------------|
Suggest correction
Give kudos to tab author, rate the tab!
1 2 3 4 5
comments
print report bad tab
guest
You may want to rate the tab now too:
select rating
Wanna post a correction for this tab? Suggest correction