Oops, an error
Loading. Please wait.

Hear Me Now Bass Tab

version 1
version 1

Whole song

Interactive

5,353 views 1 this week
2 commentsread comments
1 2 3 4 5
please rate
add to favorites
launch autoscroll
font size
0
reset
guitar tuner
Autoscroll
slow
fast
+/-
esc
set tempo
stop
Help us to improve Ultimate-Guitar.com Take our survey!
×
Author
Difficulty
novice
                                  Hear Me Now
                                Framing Hanley

This is usually played in dropped C# tuning but this is the modified standard tuning version.

G||-------|-------|-----------------|-----------------|-----------------|
D||-------|-------|-----------------|-----------------|-----------------|
A||-------|-------|--4-~------------|--~--------------|--~--------------|
E||-------|-------|-----------------|-----------------|-----------------|

|-----------------||--------------------------||---------------------------|
|-----------------||*------------------------*||---------------------------|
|--~--------------||*------------------------*||--4--4-------4--4----------|
|-----------------||---5--5-------5--5--------||----------------------12\--|

|------------------------|----------------------|----------------------|
|------------------------|----------------------|----------------------|
|------------------------|--4---------4---------|--4---------4---------|
|--4--4-------4--4-------|----------------------|----------------------|

|--------------------------|--------------------------|
|--------------------------|--------------------------|
|--------------------------|--------------------------|
|--4--4--4--4--4--4--4--4--|--5--5--5--5--5--5--5--5--|

|--------------------------|--------------------------|
|--------------------------|--------------------------|
|--------------------------|--------------------------|
|--0--0--0--0--0--0--0--0--|--5--5--5--5--5--5--5--5--|

|---------------------------|------------------------|
|---------------------------|------------------------|
|--4--4-------4--4----------|------------------------|
|----------------------12\--|--4--4-------4--4-------|

|-------------------------|---------------------|--------------------------|
|-------------------------|---------------------|--------------------------|
|--4--4------4--4---------|---------------------|--------------------------|
|--------------------12\--|--4--4------4--4-----|--5--5--5--5--5--5--5--5--|

|--------------------------|-------------------------|----------------------|
|--------------------------|-------------------------|----------------------|
|--------------------------|--4--4------4--4---------|----------------------|
|--5--5--5--5--5--5--4--4--|--------------------12\--|--4--4------4--4------|

|--------------------------|--------------------------|---------------------|
|--------------------------|--------------------------|---------------------|
|--------------------------|--------------------------|--4--------4---------|
|--5--5--5--5--5--5--5--5--|--5--5--5--5--5--5--5--5--|---------------------|

|---------------------|--------------------------|--------------------------|
|---------------------|--------------------------|--------------------------|
|--4--------4---------|--------------------------|--------------------------|
|---------------------|--4--4--4--4--4--4--4--4--|--5--5--5--5--5--5--5--5--|

|--------------------------|--------------------------|
|--------------------------|--------------------------|
|--------------------------|--------------------------|
|--0--0--0--0--0--0--0--0--|--5--5--5--5--5--5--5--5--|

|-------------------------|---------------------|--------------------------|
|-------------------------|---------------------|--------------------------|
|--4--4------4--4---------|---------------------|--------------------------|
|--------------------12\--|--5--5------5--5-----|--0--0--0--0--0--0--0--0--|

|--------------------------|-------------------------|----------------------|
|--------------------------|-------------------------|----------------------|
|--------------------------|--4--4------4--4---------|----------------------|
|--5--5--5--5--5--5--5--5--|--------------------12\--|--4--4------4--4------|

|----------------------------||----------------------------||
|*--7--7--7--7--7--7--7--7--*||*--------------------------*||
|*--------------------------*||*--4--4--4--4--4--4--4--4--*||
|----------------------------||----------------------------||

|--------------------------|--------------------------|
|--------------------------|--------------------------|
|--------------------------|--2--2--2--2--2--2--2--2--|
|--5--5--5--5--5--5--5--5--|--------------------------|

|----------------------------||--------------------------|
|*--------------------------*||--------------------------|
|*--4--4--4--4--4--4--4--4--*||--------------------------|
|----------------------------||--4--4--4--4--4--4--4--4--|


|--------------------------|-------------------------|----------------------|
|--------------------------|-------------------------|----------------------|
|--------------------------|--4--4------4--4---------|----------------------|
|--5--5--5--5--5--5--5--5--|--------------------12\--|--4--4------4--4------|

|--------------------------|--------------------------|
|--------------------------|--------------------------|
|--4--4--4--4--4--4--4--4--|--------------------------|
|--------------------------|--5--5--5--5--5--5--5--5--|

|---------------------------|---------------------------||
|*--------------------------|--------------------------*||
|*--------------------------|--------------------------*||
|---0--0--0--0--0--0--0--0--|--5--5--5--5--5--5--5--5---||

|------------------------|------------------------|-------------------|
|------------------------|------------------------|-------------------|
|--4--4-------4--4-------|------------------------|--4-~--------------|
|------------------------|--4--4-------4--4-------|-------------------|


By Rhys Bailey
Suggest correction
Give kudos to tab author, rate the tab!
1 2 3 4 5
comments
print report bad tab
2 comments total.
0 reply
petey1993 52 wrote on May 1 2010, 11:37 am

it looks accurate :)
most of their songs are dropped D though.
5 stars for sure until i test it out :)

0 reply
maxpowweer 618 wrote on May 4 2011, 05:08 pm

Be nice if it was seperated into section, intro, chorus, verse etc. Makes it hard to follow.

guest
You may want to rate the tab now too:
select rating
Wanna post a correction for this tab? Suggest correction