Oops, an error
Loading. Please wait.

Hear Me Now Tab

version 1
version 1

Whole song

Interactive

23,596 views 6 this week
3 commentsread comments
1 2 3 4 5
excellent!
x 9
add to favorites
launch autoscroll
font size
0
reset
how to read this tab
guitar tuner
Tab Pro tools
  • play this tab
  • loop segment
  • change instrument
  • show fretboard
  • metronome
×
Best way to learn
"Hear Me Now"
Autoscroll
slow
fast
+/-
esc
set tempo
stop
Contributor
Difficulty
Tuning
novice
C# G# C# F# A# D#
-----------------------------------------------------------
                             Hear Me Now - Framing Hanley
-----------------------------------------------------------
Tabbed by: Theonelink
Email: Jimmy1927537534@btinternet.com

VIDEO OF ME PLAYING THE SONG : http://www.youtube.com/watch?v=eLise06g3D0

I'm pretty sure there are no mistakes :D

This is a combination of rhythm and lead.

Tuning: Drop C#


Intro:
D|------------------------------|
A|------------------------------|
F|------7-----------------------|
C|------0-----------------------|
G|------0----Let Ring-----------|
C|------0-----------------------|


D|----------------------------------------------------------|------------------------------------|
A|-----10-----10-----10-----10------------------------------|--13---------13-----13--------------|
F|---------------------------------12-----12-----12-----12--|------12---------12-----12----------|
C|--0------0------0------0------0------0------0------0------|----------------------------14(x16)-|
G|----------------------------------------------------------|------------------------------------|
C|----------------------------------------------------------|------------------------------------|

Prechrous:
D|--------------------------------------------------------xxxx-------|
A|--------------------------------------------------------xxxx-------|
F|--------------------------------------------------------xxxx-------|
C|----0--------0--------3------3----------88888888888888--xxxx-------|
G|----0--------0--------3------3----------88888888888888--xxxx-------|
C|----0--------0--------3------3----------88888888888888--xxxx-------|

Chorus:
D|------------------------|---------------------------|
A|------------------------|---------------------------|
F|------------------------|------------------------5--|  --Play 2nd bit
C|-33333333-8888888-1010--|---3---3-----------3-----7-|    twice
G|-33333333-8888888-1010--|-----5---5-----------5-----|
C|-33333333-8888888-1010--|-00---------0-00-00--------|
                            xx         x xx xx

D|----------------------------------------------|--------------------------------------|
A|--10(X8)----------/-13(X8)--------------------|--10(X8)---------------13(X8)---------|
F|----------12(X8)------------------------------|----------12(X8)--10(X8)--------------|
C|------------------------------14(X4)--15(X4)--|--------------------------------------|
G|----------------------------------------------|--------------------------------------|
C|----------------------------------------------|--------------------------------------|


D|----------------------------------------------|------------------|
A|--10(x8)----------/-13(x8)--------------------|-----------5------|
F|----------12(x8)--------------14(x4)--15(x4)--|-------------5----|
C|----------------------------------------------|---8--------------|
G|----------------------------------------------|---8--------------|
C|----------------------------------------------|---8--------------|

Prechrous:
D|-----------------------------------------------------------|
A|-----------------------------------------------------------|
F|-----------------------------------------------------------|
C|----0--------0--------0-------0---------8888888888888888---|
G|----0--------0--------0-------0---------8888888888888888---|
C|----0--------0--------0-------0---------8888888888888888---|

--Repeat Chorus 2X--

D|-------------------------------------|
A|-------------------------------------|
F|---555-5-55-55-55-5-555-5-55-55------|
C|---xxx-x-xx-xx-xx-x-xxx-x-xx-xx------|
G|---333-3-33-33-33-3-333-3-33-33------|
C|-------------------------------------|


D|--------------------------------|
A|--------------------------------|
F|--12(X8)--9(X8)-----------------| Repeat 4x
C|-----------------10(x8)--12(x8)-|
G|--------------------------------|
C|--------------------------------|

Interlude:
Ocatves in this order (figure out strumming)
D|-------------------------------------------------|
A|-------------------------------------------------|
F|--7---9---10---12---14---88888888----------------|
C|--x---x---x----x----x----88888888----------------|
G|--5---7---8----10---12---88888888----------------|
C|-------------------------88888888----------------|


D|-----------------------------------------|
A|-----------------------------------------|
F|-----------------------------------------|
C|--33333333-88888888-33333333-88888888----|
G|--33333333-88888888-33333333-88888888----|
C|--33333333-88888888-33333333-88888888----|

D|-----------------------------------------|
A|-----------------------------------------|
F|-----------------------------------------|
C|--0------0------0----0---8---------------|
G|--0------0------0----0---8-----Let Ring--|
C|--0------0------0----0---8---------------|
comments
print report bad tab
3 comments total.
+1 reply
reaper_x wrote on May 20 2010, 02:22 am

Great tab!
I love this band :D

Intro riff owns.

Good job!

0 reply
theonelink wrote on June 2 2010, 08:15 am

Thanks man

0 reply
Thunderbringer wrote on August 7 2010, 08:52 am

heyy dude, great tab, just needs the lead part to be perfect, otherwise, nice work brro

I want to post or [tab]
guest
You may want to rate the tab now too:
select rating
Please do not post tabs as comments. Select "correction" instead!