Oops, an error
Loading. Please wait.

Lollipop Bass Tab

version 1
version 1

Whole song

Interactive

25,168 views 1 this week
1 commentread comment
1 2 3 4 5
accurate
x 5
add to favorites
launch autoscroll
font size
0
reset
guitar tuner
Autoscroll
slow
fast
+/-
esc
set tempo
stop
Help us to improve Ultimate-Guitar.com Take our survey!
×
Author
-------------------------------------------------------------------------------
			     Lollipop - Framing Hanley
-------------------------------------------------------------------------------

Tuning:Drop D/Drop C
*I've tabbed it for both "Drop C" and "Drop D"....Drop D is towards the bottom.*

*To save space i only put each part in there once...but you can figure out the order*

  "Drop C"

    Pre-Chorus
..and she...(figure out the timing, 8 beats each)
F|-----------------------------------------------------------------------------|
C|-----------------------------------------------------------------------------|
G|--------------------------------------(Shawty wanna..)-----------------------|
C|-2~--------5~---------7~---------7~------7-7-7-7-----------------------------|


 Chorus

F|---------------------------------------------------------------------------|
C|---------------------------------------------------------------------------|(x2)
G|---------------------------------------------------------------------------|
C|-2(8x)---5(8x)---7(8x)---7-7-7--7-7-7--7-7-7--7-7-7-7----------------------|

 Verse
F|-------------------------------------------------------------------------|
C|-------------------------------------------------------------------------|(x2)
G|-------------------------------------------------------------------------|
C|--2~-----5~-----7~-----7~------------------------------------------------|

Bridge:(i wanna you....[get on your knees])
F|---------------------------------------------------------------------------|
C|---------------------------------------------------------------------------|
G|------------------(x4)-----------------------------------------------------|
C|--2--222-2-2-2-2-----------------------------------------------------------|


 Bridge part 2:(call me...)(8 beats each)

F|-----------------------------(second time through ending)------------------|
C|---------------------------------------------------------------------------|
G|---------------------------------------------------------------------------|
C|--2~----5~-----7~-----7~---[-7-7-7--7-7-7--7-7-7--7-7-7-7-]----------------|

"Drop D"

For "Drop D" in every  part, drop everything down 2 frets
G|---------------------------------------------------------------------------|
D|-2>0---5>3---7>5-----------------------------------------------------------|
A|-2>0---5>3---7>5-----------------------------------------------------------|
D|-2>0---5>3---7>5-----------------------------------------------------------|

===============================================================================
Suggest correction
What's this?
You can suggest a correction to this tab. Community and Mods will review your correction and vote to approve or reject it.
comments
print report bad tab
1 comment total.
0 reply
DJKENNEDY 11 wrote on December 9 2008, 03:50 pm

So I don't play anything until the first pre-chorus??

guest
You may want to rate the tab now too:
select rating
Please do not post tabs as comments. Select "correction" instead!