Oops, an error
Loading. Please wait.

Lollipop Bass Tab

version 2
version 2

Whole song

Interactive

6,040 views 6 this week
no commentswrite comment
1 2 3 4 5
1 last vote to show rating
add to favorites
launch autoscroll
font size
0
reset
guitar tuner
Autoscroll
slow
fast
+/-
esc
set tempo
stop
Help us to improve Ultimate-Guitar.com Take our survey!
×
Author
Lollipop
Framing Hanely
Tuning: Drop D

This is my first tab
here it goes
x= palm mute


(Guitar Intro)
Intro :13
G/----------------------------------------------|
D/----------------------------------------------|
A/-5-55555-------33333333-----------------------|
D/--------3-33333--------555555-----------------|

Chorus :26-:52
G/----------------------------------------------------|
D/----------------------------------------------------|
A/------------------------------33333333--------------|
D/-33210-0000000000-33333333333---------555555555555--|

Verse/intro
:43-1:30
G/-----------------------------------------------|
D/-----------------------------------------------|
A/-5-55555-------33333333------------------------|
D/--------3-33333---------5x---------------------|

G/------------------------------------------------|
D/------------------------------------------------|
A/-5-55555---------33333333-----------------------|
D/---------3-33333----------555555----------------|

at 1:15 this is a pause so mute that there

Chorus 1:30-1:56
G/--------------------------------------------------|
D/--------------------------------------------------|
A/------------------------------33333333------------|
D/-33210-0000000000-33333333333---------555555555555|

Breakdown 1:57-2:10
G/-------------------------------------------------|
D/-------------------------------------------------|
A/-------------------------------------------------|   X2
D/-0-0000-0-0-0---0-0000-0-0-0---------------------|

Verse/Intro
2:11-2:20
G/----------------------------------------------|
D/----------------------------------------------|
A/-5-55555-------33333333-----------------------|
D/--------3-33333--------555555-----------------|


G/----------------------------------------------|
D/----------------------------------------------|
A/-5-55555-------33333333-----------------------|
D/--------3-33333--------5x---------------------|
                        ^palm mute the last one again

Chorus lead in( chorus before the chorus XD)
CALL ME!! 2:21-2:35
G/-------------------------------------------------|
D/-------------------------------------------------|
A/-------------------------33333333----------------|
D/-0000000000-33333333333----------555555555555----|

Actual Chorus now
2:36-2:48
G/--------------------------------------------------|
D/--------------------------------------------------|
A/------------------------------33333333------------|
D/-33210-0000000000-33333333333---------555555555555|

End Breakdown
2:49-2:51
G/-------------------------------------|
D/-------------------------------------|
A/-------------------------------------|
D/-0-0000-0-0-0------------------------|

2:52-2:59
GET ON YOUR KNEES
Suggest correction
Give kudos to tab author, rate the tab!
1 2 3 4 5
comments
print report bad tab
guest
You may want to rate the tab now too:
select rating
Wanna post a correction for this tab? Suggest correction