Oops, an error
Loading. Please wait.

Lollipop Tab

version 2
version 2
56,072 views 9 this week
1 commentread comment
1 2 3 4 5
x 8
add to favorites
launch autoscroll
font size
0
reset
how to read this tab
guitar tuner
Autoscroll
slow
fast
+/-
esc
set tempo
stop
Help us to improve Ultimate-Guitar.com Take our survey!
×
i met the band in jackson mississippi they showed me allot this is the correct tabs for lolli pop
tuning is in drop D


intro same in the verse
E---------10--10--10-10--12--12--12--12--13--13--13--13--15--15--15--15-----|
B---------------------------------------------------------------------------|
G---------------------------------------------------------------------------|
D---------------------------------------------------------------------------|
A---------------------------------------------------------------------------|
D---------------------------------------------------------------------------|

E---------10--10--10--10--12--12--12--12--13--13--13--13--17--17--17--17---|
A--------------------------------------------------------------------------|
B--------------------------------------------------------------------------|
D--------------------------------------------------------------------------|
A--------------------------------------------------------------------------|
D--------------------------------------------------------------------------|


chorus before verse 1
E---------------------------------------------------------------------------|
A---------------------------------------------------------------------------|
B---------------------------------------------------------------------------|
D---0-0-0-0-0-0-0-0-3-3-3-3-3-3-3-3-10-10-10-10-10-10-10-10-5-5-5-5-5-5-5-5-|
A---0-0-0-0-0-0-0-0-3-3-3-3-3-3-3-3-10-10-10-10-10-10-10-10-5-5-5-5-5-5-5-5-|
D---0-0-0-0-0-0-0-0-3-3-3-3-3-3-3-3-10-10-10-10-10-10-10-10-5-5-5-5-5-5-5-5-|


Bridge.
E----------------------------------------------------------------------------|
B--22---------------------------22-------------------22----------------------|
G----19---22---21---19---21---22---19-22-21-19-21-22----19--22-21--19--21-22-|
D----------------------------------------------------------------------------|
A----------------------------------------------------------------------------|
D----------------------------------------------------------------------------|
Suggest correction
comments
print report bad tab
1 comment total.
0 reply
Sup Bro 30 Mar 31, 2009 10:40 AM

There are some missing parts in the end of the chorus right brefore you go back into the verse, the bridge is missing (rythym)and there is no notation on the tapping of where to hold the fret, other than that it's decent.

guest
You may want to rate the tab now too:
select rating
Wanna post a correction for this tab? Suggest correction