Oops, an error
Loading. Please wait.

Lollipop Bass Tab

version 3
version 3

Whole song

Interactive

849 views 1 this week
no commentswrite comment
1 2 3 4 5
please rate
add to favorites
launch autoscroll
font size
0
reset
guitar tuner
Autoscroll
slow
fast
+/-
esc
set tempo
stop
Help us to improve Ultimate-Guitar.com Take our survey!
×
Pre-Chorus
"And She...." (Should be easy to figure out timing)
F|-----------------------------------------------------------------------------|
C|-----------------------------------------------------------------------------|
G|--------------------------------------(Shawty wanna..)-----------------------|
D|-0~--------3~---------5~---------7~------7-7-7-7-----------------------------|


 Chorus
F|---------------------------------------------------------------------------|
C|---------------------------------------------------------------------------|
G|---------------------------------------------------------------------------|(2x)
D|-0(8x)---3(8x)---5(8x)---7-7-7--7-7-7--7-7-7--7-7-7-7----------------------|

 Verse
F|---------------------------------------------------------------|
C|---------------------------------------------------------------|
G|---------------------------------------------------------------|   (2x)
D|--0~-----3~-----5~-----7~--------------------------------------|

Bridge (Pt. 1):"I wanna you...(Get on your knees)"
F|---------------------------------------------------------------------------|
C|---------------------------------------------------------------------------|
G|------------------(x4)-----------------------------------------------------|
D|--0--000-0-0-0-0-----------------------------------------------------------|


 Bridge (Pt. 2):(call me...)(8 beats each)
F|-----------------------------(second time through ending)--------------------|
C|-----------------------------------------------------------------------------|
G|-----------------------------------------------------------------------------|
D|--0~----3~-----5~-----7~---[-7-7-7--7-7-7--7-7-7--7-7-7-7-]------------------|


Pre-Chorus (Start playing at 0:13)
Chorus (0:26)
Verse (0:52)
Pre-Chorus (1:18)
Chorus (1:31)
Bridge Pt. 1 (1:57)
Bridge Pt. 2 (2:10)
Chorus (2:36)
Bridge Pt. 1 (3:01)


And thats it!  I hope its correct and that yall will like it! :D
Suggest correction
Give kudos to tab author, rate the tab!
1 2 3 4 5
comments
print report bad tab
guest
You may want to rate the tab now too:
select rating
Wanna post a correction for this tab? Suggest correction