Oops, an error
Loading. Please wait.

Lollipop Tab

version 3
version 3
96,417 views 6 this week
9 commentsread comments
1 2 3 4 5
accurate
x 17
add to favorites
launch autoscroll
font size
0
reset
how to read this tab
guitar tuner
Autoscroll
slow
fast
+/-
esc
set tempo
stop
Help us to improve Ultimate-Guitar.com Take our survey!
×
Author
-------------------------------------------------------------------------------
                                Lollipop - Framing Hanley
-------------------------------------------------------------------------------
Tabbed by: Matt Remmel
Email:MattRemmel@yahoo.com

Tuning:Drop D/Drop C

*I've tabbed it for both "Drop C" and "Drop D"....Drop D is towards the bottom.*

*The part at the end of the chorus and the first part of the bridge might not be 
100% as far as timing and rythm...but thats how i play it.*

*To save space i only put each part in there once...but you can figure out the order*

*If you have any questions or corrections or need help with it feel free to
email me.*

  "Drop C"

  Intro:(played througout song)
D|-12(4x)-14(4x)-15(4x)-17(4x)-12(4x)-14(4x)-15(4x)-19(4x)-------------------|
A|---------------------------------------------------------------------------|
F|---------------------------------------------------------------------------|
C|---------------------------------------------------------------------------|
G|---------------------------------------------------------------------------|
C|---------------------------------------------------------------------------|

During the first pre-chorus theres not an actual guitar going, but this is 
what you would play.

  Pre-Chorus
..and she...(figure out the timing, 8 beats each) 
D|---------------------------------------------------------------------------|
A|---------------------------------------------------------------------------|
F|---------------------------------------(shawty wanna...--------------------|
C|-2~--------5~---------7~---------7~------7-7-7-7---------------------------|
G|-2~--------5~---------7~---------7~------7-7-7-7---------------------------|
C|-2~--------5~---------7~---------7~------7-7-7-7---------------------------
                                           . . . .

 Chorus
D|-------------------------------------------------------------------------|
A|-------------------------------------------------------------------------|
F|-------------------------------------------------------------------------|
C|-2-------5-------7-------7-7-7--7-7-7--7-7-7--7-7-7-7--------------------|(x2)
G|-2(8x)---5(8x)---7(8x)---7-7-7--7-7-7--7-7-7--7-7-7-7--------------------|
C|-2-------5-------7-------7-7-7--7-7-7--7-7-7--7-7-7-7-------------------- 
                           . .    . .    . .    . . . .

 Verse
D|-------------------------------------------------------------------------|
A|-------------------------------------------------------------------------|
F|-------------------------------------------------------------------------|
C|--2~-----5~-----7~-----7~------------------------------------------------|(x2)
G|--2~-----5~-----7~-----7~------------------------------------------------|
C|--2~-----5~-----7~-----7~------------------------------------------------|

Bridge:(i wanna you....[get on your knees])
D|---------------------------------------------------------------------------|
A|---------------------------------------------------------------------------|
F|---------------------------------------------------------------------------|
C|--2--222-2-2-2-2-----------------------------------------------------------|
G|--2--222-2-2-2-2--(x4)-----------------------------------------------------|
C|--2--222-2-2-2-2-----------------------------------------------------------| 
    .  ... . . . 

 Bridge part 2:(call me...)(8 beats each)
D|---------------------------------------------------------------------------|
A|---------------------------------------------------------------------------|
F|-----------------------------(second time through ending)-------------------|
C|--2~----5~-----7~-----7~---[-7-7-7--7-7-7--7-7-7--7-7-7-7-]----------------|
G|--2~----5~-----7~-----7~---[-7-7-7--7-7-7--7-7-7--7-7-7-7-]----------------|
C|--2~----5~-----7~-----7~---[-7-7-7--7-7-7--7-7-7--7-7-7-7-]----------------|
                               . .    . .    . .    . . . .


"Drop D"
 Intro:
e|-10(4x)-12(4x)-13(4x)-15(4x)-10(4x)-12(4x)-13(4x)-17(4x)-------------------|
B|---------------------------------------------------------------------------|
G|---------------------------------------------------------------------------|
D|---------------------------------------------------------------------------|
A|---------------------------------------------------------------------------|
D|---------------------------------------------------------------------------|

For "Drop D" in every other part, drop everything down 2 frets
e|---------------------------------------------------------------------------|
B|---------------------------------------------------------------------------|
G|---------------------------------------------------------------------------|
D|-2>0---5>3---7>5-----------------------------------------------------------|
A|-2>0---5>3---7>5-----------------------------------------------------------|
D|-2>0---5>3---7>5-----------------------------------------------------------|

===============================================================================
Suggest correction
comments
print report bad tab
9 comments total. Showing first comments.
+2 reply
supermansidekik 20 wrote on January 6 2009, 01:41 pm

what about the solo played before the second chorus?

-1 reply
synystagates 50 wrote on January 15 2009, 11:01 pm

makes no difference if u change to drop D...Just keep in drop C and adjust the chords...

+1 reply
mrthetford4007 41 wrote on March 16 2009, 11:38 am

poorly put together and you didnt make a change much in the drop D and C

guest
You may want to rate the tab now too:
select rating
Please do not post tabs as comments. Select "correction" instead!