Oops, an error
Loading. Please wait.

Lollipop Bass Tab

version 4
version 4

Whole song

Interactive

1,217 views 1 this week
1 commentread comment
1 2 3 4 5
2 more votes to show rating
add to favorites
launch autoscroll
font size
0
reset
guitar tuner
Autoscroll
slow
fast
+/-
esc
set tempo
stop
Help us to improve Ultimate-Guitar.com Take our survey!
×
Difficulty
Tuning
novice
C G C F A D
Song: Lollipop
Artist: Framing Hanley
Tuning: C, G, C, F 

x = Palm Mute
~ = Let Ring

(Guitar Intro)
Intro:
F|------------------------------------|
C|------------------------------------|
G|-7-77777-------5-55555--------------|
C|--------5-55555-------7-77777-------|

Chorus:
F|------|-------------------------------------------------------------------------|
C|---x1-|----------------------------------------------------------------------x2-|
G|------|-------------------------------------------------------------------------|
C|-xxxx-|-2222222222222222555555555555555500000000000000007xx7xx7xx7xx7-7---------|

Verse:
F|------------------------------------|
C|------------------------------------|
G|-7-77777-------5-55555--------------|
C|--------5-55555-------7-77777-------|

F|------------------------------------|
C|------------------------------------|
G|-7-77777-------5-55555--------------|
C|--------5-55555-------7-------------|

Pre-Chorus:
F|------------------------------------|
C|------------------------------------|
G|-7~------------5~-------------------|
C|--------5~------------7~------------|

Chorus:

Break:x2
F|--------------------------------------|
C|--------------------------------------|
G|--------------------------------------|
C|-2/-2222-2-2-2-2----2/-2222-2-2-2-2---|

Post-Break:
F|------------------------------------|
C|------------------------------------|
G|-7~------------5~-------------------|
C|--------5~------------7~------------|

Pre-Chorus 2:
F|------|-----------------------------------------------------------------|
C|------|-----------------------------------------------------------------|
G|------|-----------------------------------------------------------------|
C|-xxxx-|2222222222222222555555555555555500000000000000007777777777777777-|

Chorus:x2 (With Slight Change)
F|-------------------------------------------------------------------------|
C|-------------------------------------------------------------------------|
G|-------------------------------------------------------------------------|
C|-2222222222222222555555555555555500000000000000007777777777777777--------|

Break/End:
F|-------------------|
C|-------------------|
G|-------------------|
C|-2-2222-2-2-2-2----|
Suggest correction
Give kudos to tab author, rate the tab!
1 2 3 4 5
comments
print report bad tab
1 comment total.
0 reply
mintondm 10 Dec 12, 2012 01:34 PM

This tab is CORRECT! Thanks very much!

guest
You may want to rate the tab now too:
select rating
Wanna post a correction for this tab? Suggest correction