Oops, an error
Loading. Please wait.

Lollipop Tab

version 4
version 4
19,384 views 3 this week
4 commentsread comments
1 2 3 4 5
accurate
x 7
add to favorites
launch autoscroll
font size
0
reset
how to read this tab
guitar tuner
Autoscroll
slow
fast
+/-
esc
set tempo
stop
Help us to improve Ultimate-Guitar.com Take our survey!
×
Author
BoBalu 46
Song: Lollipop
Artiest: Framing Hanley
Tuning: Drop D
Accuracy: 100%

Listen to the song to get the timing


Drop D"
 Intro:
e|-10(4x)-12(4x)-13(4x)-15(4x)-10(4x)-12(4x)-13(4x)-17(4x)-------------------|
B|---------------------------------------------------------------------------|
G|---------------------------------------------------------------------------|
D|---------------------------------------------------------------------------|
A|---------------------------------------------------------------------------|
D|---------------------------------------------------------------------------|




 Shawty wanna Thug      x    x    x    x   x
e|---------------------------------------------------------------------------|
B|-3-------------------------------------------------------------------------|
G|-2-------5-----------------------------------------------------------------|
D|-0---3---5-------0---------------------------------------------------------|
A|-0---3---3-------0------7----8----10---8----7-8-8-7------------------------|
D|-0---3-----------0---00---00---00---00--00---------------------------------|




Jurp Jurp. Thats when she  She licked me like a Lollipop
e|---------------------------------------------------------------------------|
B|---------------------------------------------------------------------------|
G|---------------------9---10--12--14----------------------------------------|
D|---------------------x---x---x---x-----------------------------------------|
A|---------------------7---8---10--12----------------------------------------|
D|---------------------------------------------------------------------------|
     (Play this during "call me so I can make it juicy for ya" as well)  
            

    x     x  x  x  x  x
e|---------------------------------------------------------------------------|
B|---------------------------------------------------------------------------|
G|---------------------------------------------------------------------------|
D|--0----0--0--0--0--0-------------------------------------------------------| All Muted
A|--0----0--0--0--0--0-------------------------------------------------------|
D|--0----0--0--0--0--0-------------------------------------------------------|



"Call me so I can come an do it for ya"
e|---------------------------------------------------------------------------|
B|---------------------------------------------------------------------------|
G|----------5----------------------------------------------------------------|
D|--0---3---5---5------------------------------------------------------------|
A|--0---3---3---5------------------------------------------------------------|
D|--0---3-------5------------------------------------------------------------|
Suggest correction new What's this?
You can suggest a correction to this tab. Community and Mods will review your correction and vote to approve or reject it.
comments
print report bad tab
4 comments total. Showing first comments.
+1 reply
jimboj86 16 wrote on December 14 2008, 08:50 pm

What you have looks good, just to add what effects/techniques to make it sound right:
-The intro is played with finger tapping. Just mute the string and tap the notes.
-The bridge (She licked me like a lollipop) you can either play those octave chords with a talk box, or you can play the bridge section in Ver2 of this tab.

0 reply
supermansidekik 190 wrote on January 6 2009, 01:40 pm

what about the solo played before the second chorus?

+2 reply
guitarluvr1993 24 wrote on February 4 2009, 05:44 pm

this one is the best..it sounds just like the song. great job!

guest
You may want to rate the tab now too:
select rating
Please do not post tabs as comments. Select "correction" instead!