Oops, an error
Loading. Please wait.

Lollipop Tab

version 5
version 5

Interactive

Video

29,889 views 33 this week
2 commentsread comments
1 2 3 4 5
excellent!
x 8
add to favorites
launch autoscroll
font size
0
reset
how to read this tab
guitar tuner
Tab Pro tools
  • play this tab
  • loop segment
  • change instrument
  • show fretboard
  • metronome
×
Best way to learn
"Lollipop"
Autoscroll
slow
fast
+/-
esc
set tempo
stop
Contributor
hold your 4 left fingers over the strings and tap with your right hand!

D|-12(4x)-14(4x)-15(4x)-17(4x)-12(4x)-14(4x)-15(4x)-19(4x)-----------------|
A|-------------------------------------------------------------------------|
F|-------------------------------------------------------------------------|
C|-------------------------------------------------------------------------|
G|-------------------------------------------------------------------------|
C|-------------------------------------------------------------------------|

 Chorus
D|-------------------------------------------------------------------------|
A|-------------------------------------------------------------------------|
F|-----------------7-------------------------------------------------------|
C|-2-------5-------7-------7-7-7--7-7-7--7-7-7--7-7-7-7--------------------|
G|-2(8x)---5(8x)---5(8x)---7-7-7--7-7-7--7-7-7--7-7-7-7--------------------|
C|-2-------5---------------7-7-7--7-7-7--7-7-7--7-7-7-7--------------------|
                           . .    . .    . .    . . . .
REPEAT X2 ^
D|-12(4x)-14(4x)-15(4x)-17(4x)-12(4x)-14(4x)-15(4x)-19(4x)-----------------|
A|-------------------------------------------------------------------------|
F|-------------------------------------------------------------------------|
C|-------------------------------------------------------------------------|
G|-------------------------------------------------------------------------|
C|-------------------------------------------------------------------------|

  solo thing (sounds good with music! but not 100% sure!)
D|-19-----------------19-----22-----21---------------------------|
A|---17-20-19-17-19-20--17-19--17-19--17-18----------------------| REPEAT X4
F|---------------------------------------------------------------|
C|---------------------------------------------------------------|
G|---------------------------------------------------------------|
C|---------------------------------------------------------------|

Bridge:(i wanna you....[get on your knees])
D|---------------------------------------------------------------------------|
A|---------------------------------------------------------------------------|
F|---------------------------------------------------------------------------|
C|--2--222-2-2-2-2-----------------------------------------------------------|
G|--2--222-2-2-2-2--(x4)-----------------------------------------------------|
C|--2--222-2-2-2-2-----------------------------------------------------------|
    .  ... . . .

 Bridge part 2:(call me...)(8 beats each)
D|--------------------------------------------------------------------------|
A|--------------------------------------------------------------------------|
F|---------------7~--------------(second time through ending)---------------|
C|--2~----5~-----7~-----7~---[-7-7-7--7-7-7--7-7-7--7-7-7-7-]---------------|
G|--2~----5~-----5~-----7~---[-7-7-7--7-7-7--7-7-7--7-7-7-7-]---------------|
C|--2~----5~------------7~---[-7-7-7--7-7-7--7-7-7--7-7-7-7-]---------------|
                               . .    . .    . .    . . . .
 Ending.
D|--------------------------------------------------------------------------|
A|--------------------------------------------------------------------------|
F|--------------------------------------------------------------------------|
C|--2--222-2-2-2-2----------------------------------------------------------|
G|--2--222-2-2-2-2--(X1)----------------------------------------------------|
C|--2--222-2-2-2-2----------------------------------------------------------|
    .  ... . . .
comments
print report bad tab
2 comments total.
0 reply
lordzero545 wrote on March 8 2011, 07:54 am

Which frets do you hold down with your 4 left fingers?

0 reply
crue_fan91 wrote on April 11 2012, 12:46 am

just mute the strings, you aren't holding holding down any specific frets.

I want to post or [tab]
guest
You may want to rate the tab now too:
select rating
Please do not post tabs as comments. Select "correction" instead!