Oops, an error
Loading. Please wait.

Lollipop Tab

version 6
version 6
8,203 views 1 this week
2 commentsread comments
1 2 3 4 5
x 3
add to favorites
launch autoscroll
font size
0
reset
how to read this tab
guitar tuner
Autoscroll
slow
fast
+/-
esc
set tempo
stop
Help us to improve Ultimate-Guitar.com Take our survey!
×
Author
                            Framing Hanley
                              Lollipop

Awesome cover by Framing Hanley, and really fun to play. Listen to the song to figure 
the strumming. Look at the bottom for the order in which to play the different parts... enjoy!


Intro:
E|--10-10-10-10--12-12-12-12--13-13-13-13--15-15-15-15--|
B|------------------------------------------------------|
G|------------------------------------------------------|
D|------------------------------------------------------|
A|------------------------------------------------------|
D|------------------------------------------------------|

E|--10-10-10-10--12-12-12-12--13-13-13-13--17-17-17-17--|
B|------------------------------------------------------|
G|------------------------------------------------------|
D|------------------------------------------------------|
A|------------------------------------------------------|
D|------------------------------------------------------|

Chorus:
E|------------------------------------------------------|
B|------------------------------------------------------|
G|------------------------------------------------------|
D|--0000---3333---5555555--33-33-33---------------------|
A|--0000---3333---5555555--33-33-33---------------------|
D|--0000---3333---5555555--33-33-33---------------------|


Fill 1: Octaves

E|------------------------------------------------------|
B|------------------------------------------------------|
G|--7--7--7----10-10-10---12--12--12----14--14--14------|
D|--x--x--x----x--x--x----x---x---x-----x---x---x-------|
A|--5--5--5----8--8--8----10--10--10----12--12--12------|
D|------------------------------------------------------|

Fill 2: All palm-muted
E|------------------------------------------------------|
B|------------------------------------------------------|
G|------------------------------------------------------|
D|--00--00000000----------------------------------------|
A|--00--00000000----------------------------------------|
D|--00--00000000----------------------------------------|
    ++  ++++++++

***Order:
-Intro
-Chorus
-Intro
-Intro
Gtr 2: Fill 1
-Chorus
-Intro
Gtr 2: Fill 2
-Intro
Gtr 2: Fill 1
-Chorus
Gtr 2: Intro
-Fill 2
-Intro fades out
Suggest correction
Give kudos to tab author, rate the tab!
1 2 3 4 5
comments
print report bad tab
2 comments total.
0 reply
ariffsuffian 55 Sep 05, 2009 06:47 PM

Hey, if i'm not mistaken, at 1.18 there's a fill in there? For lead guitar? Any ideas dude?

0 reply
fallingrace56 31 Sep 30, 2009 05:41 PM

intros good but the rest just dont sound right to me maybe im wrong idk

guest
You may want to rate the tab now too:
select rating
Wanna post a correction for this tab? Suggest correction