Oops, an error
Loading. Please wait.

The Promise Bass Tab

909 views 1 this week
no commentswrite comment
1 2 3 4 5
please rate
add to favorites
launch autoscroll
font size
0
reset
guitar tuner
Autoscroll
slow
fast
+/-
esc
set tempo
stop
Help us to improve Ultimate-Guitar.com Take our survey!
×
Author
Difficulty
Tuning
novice
D A D G B E
Tabbed by: Matt
Email: May92d@yahoo.com
Song: The Promise
Artist: Framing Hanley
Album: A Promise to Burn
Tuning: Drop D (D, A, D, G)


Intro-
Come in at 0:20
G |-------------------------------------------------------|
D |-------------------------------------------------------|
A |1111111---1111111---3333333---3333333------------------|
D |----------------------------------------3333333---3333-|

G |-------------------------------|
D |-------------------------------|
A |------6666666---6666666666688--|
D |333----------------------------|

Chorus1-0:38
G |------------------------------------------------------|
D |------------------------------------------------------|
A |------------------------------------------------------|
D |3~33333~33333~33333~33336~66666~66666~66666~66668~8888|

G |------------------------------------------------------|
D |------------------------------------------------------|
A |------------------------------------------------------|
D |8~88888~88888~88883~33333~33333~33333~33338~----------|

Verse-1:00
G |------------------------------------------------------|
D |------------------------------------------------------|
A |----------------------------------------(6x20)--------|
D |3333333-------------3333333---------------------------|

G |-------------------------------------------------------|
D |-------------------------------------------------------|
A |--------------------6666666---6666666------------------|
D |3333333---3333333-----------------------3333333---3333-|

G |------------------------------|
D |------------------------------|
A |------6666666---6666666666688-|
D |333---------------------------|

Chorus2-1:32
G |------------------------------------------------------|
D |------------------------------------------------------|
A |------------------------------------------------------|
D |3~33333~33333~33333~33336~66666~66666~66666~66668~8888|







G |-------------------------------------------------------|
D |-------------------------------------------------------|
A |------------------------------------------4~44444~4444-|
D |8~88888~88888~88883~33333~33333~33333~3333-------------|

G |-------------------------------------------------------|
D |-------------------------------------------------------|
A |4~44444~4444-------------------------------------------|
D |------------3~33333~33333~33333~33336~66666~66666~6666-|

G |-------------------------------------------------------|
D |-------------------------------------------------------|
A |------1~11111~11113~33333---4~44444~44444~44444~4444---|
D |6~6666----------------------------------------------3~-|

G |-------------------------------------------------------|
D |-------------------------------------------------------|
A |----------------------------------------------1~11111~-|
D |33333~33333~33333~33336~66666~66666~66666~6666---------|

G |--------------------|
D |--------------------|
A |11113~33334~4444----|
D |----------------3~--|

Pre chorus-
Come in at 2:40
G |-------------------------------------|
D |688688-8101081010-101212101212(15x6)-|
A |-------------------------------------|
D |-------------------------------------|

Chorus3-2:44
G |------------------------------------------------------|
D |------------------------------------------------------|
A |------------------------------------------------------|
D |3~33333~33333~33333~33336~66666~66666~66666~66668~8888|

G |-------------------------------------------|
D |-------------------------------------------|
A |------------------------------------888888-|
D |8~88888~88888~88883~33333~33333~3333-------|

Outro Chorus-
G |------------------------------------------------------|
D |------------------------------------------------------|
A |------------------------------------------------------|
D |3033~33033~33033~33033~36066~66066~66066~66066~68088~8|

G |---------------------------------------------|
D |---------------------------------------------|
A |---------------------------------------------|
D |8088~88088~88088~83033~33033~33033~33333333~-|
Suggest correction
What's this?
You can suggest a correction to this tab. Community and Mods will review your correction and vote to approve or reject it.
comments
We did not receive enough feedback on this tab! Please rate:
print report bad tab
1 2 3 4 5
guest
You may want to rate the tab now too:
select rating
Please do not post tabs as comments. Select "correction" instead!