Oops, an error
Loading. Please wait.

Wave Goodbye Tab

3,885 views 3 this week
no commentswrite comment
1 2 3 4 5
please rate
add to favorites
launch autoscroll
font size
0
reset
how to read this tab
guitar tuner
Autoscroll
slow
fast
+/-
esc
set tempo
stop
Help us to improve Ultimate-Guitar.com Take our survey!
×
Contributor
-------------------------------------------------------------------------------
                   "Wave Goodbye" by Framing Hanley
-------------------------------------------------------------------------------
Tabbed by: thewakebehindyou
Email: thewakebehindyou@excite.com
April 10th 2008

Track #10 from "The Moment," the debut LP from rock-quintet Framing Hanley.

Tuning: C# G# C# F# A# D#

Intro

e|------------------------------------------------|
B|--------------10----9---------------------------|
G|---------9---------------9----9----11----9------|
D|---11-11---11----11---11---11---11----11--------|
A|------------------------------------------------|
E|------------------------------------------------|
     xx xx   xx    xx   xx   xx   xx    xx

e|------------------------------------------------|
B|-----------------10----9------------------------|
G|------------9---------------9----9----11----9---|
D|---11-11-11---11----11---11---11---11----11-----|
A|------------------------------------------------|
E|------------------------------------------------|
     xx xx xx   xx    xx   xx   xx   xx    xx
    
    "A pen ends a note..."
e|------------------------------------------------|
B|------------------------------------------------|
G|------------------------------------------------|
D|-------9-11----9----11----11----9----9----11----|
A|---12-------12---12----12----12---12---12-------|
E|------------------------------------------------|
     xx       xx   xx    xx    xx   xx   xx

e|------------------------------------------------|
B|------------------------------------------------|
G|------------------------------------------------|
D|-------11-------9----11----11----11----9-11-----|
A|---12-----12-12---12----12----12----12----------|
E|------------------------------------------------|
     xx     xx xx   xx    xx    xx    xx

          "...The words you wrote..."
e|------------------------------------------------|
B|---------------10----9--------------------------|
G|----------9---------------9----9----11----9-----|
D|---11--11---11----11---11---11---11----11-------|
A|------------------------------------------------|
E|------------------------------------------------|
     xx  xx   xx    xx   xx   xx   xx    xx

e|------------------------------------------------|
B|---------------10----9--------------------------|
G|----------9---------------9----9----11----------|
D|---11--11---11----11---11---11---11----11-9-----|
A|------------------------------------------------|
E|------------------------------------------------|
     xx xx xx   xx    xx   xx   xx   xx
         
           "...about who you are inside..."
e|---------------------------------------------------------------|
B|---------------------------------------------------------------|
G|---------------------------------------------------------------|
D|-----11----9-11--9--11----9-11------11----9--11--9--11-----9---|
A|-12-----12-------------12--------12----12---------------12-----|
E|---------------------------------------------------------------|
   xx     xx             xx        xx    xx               xx

                         "...'cause I can see through you..."     
e|-------------------------------------------------|
B|--------------10----9--------------10----9-------|
G|---------9---------------9----9------------------|
D|---11-11---11----11---11---11---11----11---11----|
A|-------------------------------------------------|
E|-------------------------------------------------|
     xx xx   xx    xx   xx   xx   xx    xx   xx

e|-------------------------------------------------|
B|--------------10----9----------------------------|
G|---9-----9---------------11----9-----9-----------|
D|------11---11----11---11----11----11---11-9------|
A|--------------------------------------------12---|
E|-------------------------------------------------|
        xx   xx    xx   xx    xx    xx    


Chorus
play twice
e|--------------------------------------------------------------------------|
B|--------------------------------------------------------------------------|
G|----------11-11-11-11-11-11-11-11-11/-14-----7-7-7-7-7-7-7-7-7-7-7-7-7-7--|
D|--4--4-4--x--x--x--x--x--x--x--x--x-/-x---0--x-x-x-x-x-x-x-x-x-x-x-x-x-x--|
A|--4--4-4--9--9--9--9--9--9--9--9--9-/-12--0--5-5-5-5-5-5-5-5-5-5-5-5-5-5--|
E|--4--4-4----------------------------------0-------------------------------|

e|--------------------------------------------|
B|--------------------------------------------|
G|------------14-14-14-14-14-14-14-14-14-14---|
D|---4-4-4-4--x--x--x--x--x--x--x--x--x--x----|
A|---4-4-4-4--12-12-12-12-12-12-12-12-12-12---|
E|---4-4-4-4----------------------------------|


verse II
no mute this time, the riff is a bit different

            "...The time has come..."
e|------------------------------------------------|
B|---------------10----9-9------------------------|
G|----------9--------------11----9----9----9------|
D|---11--11---11----11--------11---11---11---11---|
A|------------------------------------------------|
E|------------------------------------------------|

e|------------------------------------------------|
B|------------10----9-------------10-9------------|
G|-------9--------------11----9---------11--------|
D|----11---11----11---9----11---11----------------|
A|------------------------------------------------|
E|------------------------------------------------|
    "...and burn, burn, burn..."
e|------------------------------------------------|
B|------------------------------------------------|
G|------------------------------------------------|
D|------9-11----11-11-11----11-11-11----11-11-11--|
A|---12------12----------12----------12-----------|
E|------------------------------------------------|

e|------------------------------------------------|
B|------------------------------------------------|
G|------------------------------------------------|
D|-----11-11-11----11-11-11----11-11-11----9-11---|
A|--12----------12----------12----------12--------|
E|------------------------------------------------|
    "...and hope they remember you..."
e|------------------------------------------------|
B|--------------10----9---------------10-9--------|
G|-------9----9------------11----9---------11-----|
D|---11----11------11---11----11---11-------------|
A|------------------------------------------------|
E|------------------------------------------------|

e|------------------------------------------------|
B|--------------10----9---------------10-9--------|
G|---------9---------------11----9---------9------|
D|---11-11---11----11---11----11---11-------------|
A|------------------------------------------------|
E|------------------------------------------------|
                          "...something more than...
e|------------------------------------------------|
B|------------------------------------------------|
G|------------------------------------------------|
D|------------11----9-11----11----11-------9-11---|
A|---12-12-12----12------12----12----12-12--------|
E|------------------------------------------------|

e|--------------------------------------------|
B|--------------------------------------------|
G|--------------------------------------------|
D|------11-------9--11-9--11-----9-11---------|
A|---12----12-12--------------12--------------|
E|--------------------------------------------|



=-=-=-=-=-=-=-=-=-=-=-=-=-=-=-=-=-=-=-=-=-=-=-=-=-=-=-=-=-=-=-=-=-=-=-=-=-=

Guitar 2

Verse I (listen for when to play)
e|---------------------------------|
B|---------------------------------|
G|---------------------------------|
D|----4-----4-----2-4-7--0-----0---| x2
A|----4-----4-----2-4-7--0-----0---|
E|----4-----4-----2-4-7--0-----0---|

Pre-Chorus
      Q         E 
e|---------------------------------------------------|
B|----10--------10---------8--8-8--8--8--8--8--8-8---|
G|----9---------9----------7--7-7--7--7--7--7--7-7---|
D|----7-(x1)----7-(x14)----5--5-5--5--5--5--5--5-5---| (x2)
A|----0---------0----------5--5-5--5--5--5--5--5-5---|
E|---------------------------------------------------|

Chorus
play twice
e|-------------------------------------------------------------|
B|-------------------------------------------------------------|
G|-------------------------------------------------------------|
D|---4--4-4------9-9-----7-7--0--0-0-0-0-0-0-0-0-0-0-0-0-0-0---|
A|---4--4-4------9-9-----7-7--0--0-0-0-0-0-0-0-0-0-0-0-0-0-0---|
E|---4--4-4------9-9-----7-7--0--0-0-0-0-0-0-0-0-0-0-0-0-0-0---|
                                   x x x x x x x x x x x x x x 
                                   
e|-------------------------------------------------------------------|
B|-------------------------------------------------------------------|
G|-------------------------------------------------------------------|
D|---4-4-4-4------9-9-----7-7--9--9-9-9-9-9-9-12--12-12-12-12-12-12--|
A|---4-4-4-4------9-9-----7-7--9--9-9-9-9-9-9-12--12-12-12-12-12-12--|
E|---4-4-4-4------9-9-----7-7--9--9-9-9-9-9-9-12--12-12-12-12-12-12--|


Verse II
e|---------------------------------------------------------|
B|---------------------------------------------------------|
G|---------------------------------------------------------|
D|---4--4-4-x-x-x-x-x-4-4--4-4--4--4-4-x-x-x-x-x-4-4--4-4--| x2
A|---4--4-4-x-x-x-x-x-4-4--4-4--4--4-4-x-x-x-x-x-4-4--4-4--|
E|---4--4-4-x-x-x-x-x-4-4--4-4--4--4-4-x-x-x-x-x-4-4--4-4--|

e|-----------------------------------------------------|
B|-----------------------------------------------------|
G|-----------------------------------------------------|
D|---0--0-0-x-x-x-x-x-0-0--0--0--0-0-x-x-x-x-x-0-0--0--|
A|---0--0-0-x-x-x-x-x-0-0--0--0--0-0-x-x-x-x-x-0-0--0--|
E|---0--0-0-x-x-x-x-x-0-0--0--0--0-0-x-x-x-x-x-0-0--0--|

e|-----------------------------------------------------|
B|-----------------------------------------------------|
G|-----------------------------------------------------|
D|---4--4-4-x-x-x-x-x-4-4--4--4--4-4-x-x-x-x-x-4-4--4--|
A|---4--4-4-x-x-x-x-x-4-4--4--4--4-4-x-x-x-x-x-4-4--4--|
E|---4--4-4-x-x-x-x-x-4-4--4--4--4-4-x-x-x-x-x-4-4--4--|

e|-----------------------------------------------------|
B|-----------------------------------------------------|
G|-----------------------------------------------------|
D|---0--0-0-x-x-x-x-x-0-0--0--0--0-0-x-x-x-x-x-0-0--0--|
A|---0--0-0-x-x-x-x-x-0-0--0--0--0-0-x-x-x-x-x-0-0--0--|
E|---0--0-0-x-x-x-x-x-0-0--0--0--0-0-x-x-x-x-x-0-0--0--|


Bridge (listen for strumming pattern)
e|---------------------------------------------|
B|---------------------------------------------|
G|---11-------14----7-------11-------14---16---|
D|---x--------x-----x-------x--------x----x----|
A|---9--------12----5-------9--------12---14---|
E|---------------------------------------------|

e|----------------------------------------|
B|----------------------------------------|
G|---11-------14----7-------18-------19---|
D|---x--------x-----x-------x--------x----|
A|---9--------12----5-------16-------17---|
E|----------------------------------------|



| /  slide up
| \  slide down
| h  hammer-on
| p  pull-off
| ~  vibrato
| +  harmonic
| x  Mute note
============================================================================
comments
We did not receive enough feedback on this tab! Please rate:
print report bad tab
1 2 3 4 5
I want to post or [tab]
guest
You may want to rate the tab now too:
select rating
Please do not post tabs as comments. Select "correction" instead!