Oops, an error
Loading. Please wait.

You Stupid Girl Tab

22,989 views 6 this week
10 commentsread comments
1 2 3 4 5
excellent!
x 5
add to favorites
launch autoscroll
font size
0
reset
how to read this tab
guitar tuner
Autoscroll
slow
fast
+/-
esc
set tempo
stop
Help us to improve Ultimate-Guitar.com Take our survey!
×
Author
-------------------------------------------------------------------------------
                             You Stupid Girl - Framing Hanley
-------------------------------------------------------------------------------
Tabbed by: Theonelink
Email: Jimmy1927537534@btinternet.com

Pretty sure a third guitar plays the chords in the intro so have just left
that out.

Some of these guitar parts can be very difficult to hear
but they are 100% there. Ive watched like 10 live videos of this song and
im confident this tab is near perfect.

Both Guitars : Drop B Tuning


INTRO:

Rhythm (Clean)
|----------------|-----|----------|---------|---------------|------------|
|-----3-5-3------|-3-5-|-----3--5-|-----5---|------3-----5--|-------3--5-|
|----------------|-----|----------|-------4-|---------------|------------|
|-4-5--------5---|-----|-4-5------|---5-----|-4-(5)---------|-4-(5)------|
|----------------|-----|----------|-3-------|---------------|------------|
|--------------2-|-----|----------|---------|---------------|------------|

|------------|-------(2)----3-|--------|
|-------3--5-|---3-5----------|--------|
|------------|-5--------------|------4-|
|-4-(5)------|----------------|-4-(5)--|
|------------|----------------|--------|
|------------|----------------|--------|

Lead (Distortion) - You should be able to hear when these notes come in.
[Some of these notes are difficult to hear but they are definately there]

|----12----|----12----|------------------|----12----|
|-------12-|-------12-|-----15-----------|-------12-|
|-9--------|-9--------|-/12----14----/16-|-9--------|
|----------|----------|-----------12-----|----------|
|----------|----------|------------------|----------|
|----------|----------|------------------|----------|



PRE-CHORUS:

Rhythm
|---------------------------------------------------------|
|---------------------------------------------------------|
|-x-x-x-x--7-7-7-7-7-7--5-5-5-5-5-5--5-5-5-5--7-7-7-7-7-7-|
|-x-x-x-x--7-7-7-7-7-7--5-5-5-5-5-5--5-5-5-5--7-7-7-7-7-7-|
|-x-x-x-x--5-5-5-5-5-5--3-3-3-3-3-3--3-3-3-3--5-5-5-5-5-5-|
|-x-x-x-x-------------------------------------------------|
                                     x x x x                  
|------------------------|
|------------------------|
|-5-5-5-5--5--5-5-5-5--5-|
|-5-5-5-5--5--5-5-5-5--5-|
|-3-3-3-3--3--3-3-3-3--3-|
|------------------------|
  x x x x     x x x x

Lead
|---------------------------------------------------------|
|---------------------------------------------------------|
|-x-x-x-x--7-7-7-7-7-7--5-5-5-5-5-5--x-x-x-x--7-7-7-7-7-7-|
|-x-x-x-x--x-x-x-x-x-x--x-x-x-x-x-x--x-x-x-x--x-x-x-x-x-x-|
|-x-x-x-x--5-5-5-5-5-5--3-3-3-3-3-3--x-x-x-x--5-5-5-5-5-5-|
|-x-x-x-x----------------------------x-x-x-x--------------|
                                                
|------------------|
|------------------|
|-16--14---12--9\--|
|--x---x---x---x\--|
|-14--12---9---7\--|
|------------------|


CHORUS:

Rhythm
|-----------------------------------------------------------------|
|-----------------------------------------------------------------|
|-----------------------------------------------------------------|
|-2-2-2-2--5--10-10-10-10--5--0-0-0-0-0--5-5-5-5-5-5--4-4-4-4-4-4-| (Twice)
|-2-2-2-2--5--10-10-10-10--5--0-0-0-0-0--5-5-5-5-5-5--4-4-4-4-4-4-|
|-2-2-2-2--5--10-10-10-10--5--0-0-0-0-0--5-5-5-5-5-5--4-4-4-4-4-4-|

|----------------------------|
|----------------------------|
|-----------5-------------7--|
|-2-2-x-x-x-5---2-2-x-x-x-7--|
|-2-2-x-x-x-3---2-2-x-x-x-5--|
|-2-2-x-x-x-----2-2-x-x-x----|


Lead
[Again these ocatves can be hard 
to hear but they are 100% there] 

|-------------------------------------|
|-------------------------------------|
|-16---9---7---12---16---14---12---19-|  [Figure out strumming 
|--x---x---x----x----x----x----x----x-|     and play twice]
|-14---7---5---10---14---12---10---17-|
|-------------------------------------|

|----------------------------|
|----------------------------|
|-----------9-------------7--|
|-2-2-x-x-x-x---2-2-x-x-x-x--|
|-2-2-x-x-x-7---2-2-x-x-x-5--|
|-2-2-x-x-x-----2-2-x-x-x----|


VERSE TWO:

Rhythm (Clean)
|--------------|----------|----------|-------(2)---3-|
|------3-----5-|------3-5-|------3-5-|---3-5---------|
|--------------|----------|----------|-5-------------|
|-4-(5)--------|-4-(5)----|-4-(5)----|---------------|
|--------------|----------|----------|---------------|
|--------------|----------|----------|---------------|

Lead (Distortion)
|----12----|----12-------12-----|-------------------------|
|-------12-|-------12-------12--|-----15------------------|
|-9--------|-9---------9--------|-/12----14----/16------9-|
|----------|--------------------|-----------12------------|
|----------|--------------------|-------------------------|
|----------|--------------------|-------------------------|


2ND CHORUS:

Rhythm
|-----------------------------------------------------------------|
|-----------------------------------------------------------------|
|-----------------------------------------------------------------|
|-2-2-2-2--5--10-10-10-10--5--0-0-0-0-0--5-5-5-5-5-5--4-4-4-4-4-4-| (Twice)
|-2-2-2-2--5--10-10-10-10--5--0-0-0-0-0--5-5-5-5-5-5--4-4-4-4-4-4-|
|-2-2-2-2--5--10-10-10-10--5--0-0-0-0-0--5-5-5-5-5-5--4-4-4-4-4-4-|

|--------------------------------------------------------|
|--------------------------------------------------------|
|-----------5-------------5-------------5-------------7--|
|-2-2-x-x-x-5---2-2-x-x-x-5---2-2-x-x-x-5---2-2-x-x-x-7--|
|-2-2-x-x-x-3---2-2-x-x-x-3---2-2-x-x-x-3---2-2-x-x-x-5--|
|-2-2-x-x-x-----2-2-x-x-x-----2-2-x-x-x-----2-2-x-x-x----|

Lead
|-------------------------------------|
|-------------------------------------|
|-16---9---7---12---16---14---12---19-|  [Figure out strumming 
|--x---x---x----x----x----x----x----x-|     and play twice]
|-14---7---5---10---14---12---10---17-|
|-------------------------------------|


|--------------------------------------------------------|
|--------------------------------------------------------|
|-----------9-------------9-------------9-------------7--|
|-2-2-x-x-x-x---2-2-x-x-x-x---2-2-x-x-x-x---2-2-x-x-x-x--|
|-2-2-x-x-x-7---2-2-x-x-x-7---2-2-x-x-x-7---2-2-x-x-x-5--|
|-2-2-x-x-x-----2-2-x-x-x-----2-2-x-x-x-----2-2-x-x-x----|


BRIDGE:

Rhythm
|---------------------------------------|
|---------------------------------------|
|-5-5-5-5-5-5--7-7-7-7-7-7--------------| (Twice)
|-5-5-5-5-5-5--7-7-7-7-7-7--2-2--5-4----|
|-3-3-3-3-3-3--5-5-5-5-5-5--2-2-------5-|
|---------------------------2-2---------|

|-----------------|
|-----------------|
|-5-5-5-5-5-5--7--| 
|-5-5-5-5-5-5--7--| 
|-3-3-3-3-3-3--5--|
|-----------------|

Lead 
[Alternate between these notes and figure out picking pattern]
                                                                -      
|---------19-------------17--|                                  |
|--15-----------15-----------|                                  |
|----------------------------|                                  |
|----------------------------|                                  |
|----------------------------|                                  | 
|----------------------------|                                  | Play
                                                                |  3x
|------------------------|                                      |
|-15----12----15---------|                                      |
|-------------------14b--| [This part is very difficult to hear |
|------------------------|     the first 2x but its there]      |
|------------------------|                                      |
|------------------------|                                      |
                                                                -
 

FINAL CHORUS:

Rhythm
|-----------------------------------------------------------------|
|-----------------------------------------------------------------|
|-----------------------------------------------------------------|
|-2-2-2-2--5--10-10-10-10--5--0-0-0-0-0--5-5-5-5-5-5--4-4-4-4-4-4-| (Twice)
|-2-2-2-2--5--10-10-10-10--5--0-0-0-0-0--5-5-5-5-5-5--4-4-4-4-4-4-|
|-2-2-2-2--5--10-10-10-10--5--0-0-0-0-0--5-5-5-5-5-5--4-4-4-4-4-4-|

|--------------------------------------------------------|
|--------------------------------------------------------|
|-----------5-------------5-------------5-------------7--|
|-2-2-x-x-x-5---2-2-x-x-x-5---2-2-x-x-x-5---2-2-x-x-x-7--|
|-2-2-x-x-x-3---2-2-x-x-x-3---2-2-x-x-x-3---2-2-x-x-x-5--|
|-2-2-x-x-x-----2-2-x-x-x-----2-2-x-x-x-----2-2-x-x-x----|

Lead
|-------------------------------------|
|-------------------------------------|
|-16---9---7---12---16---14---12---19-|  [Figure out strumming 
|--x---x---x----x----x----x----x----x-|     and play twice]
|-14---7---5---10---14---12---10---17-|
|-------------------------------------|

|--------------------------------------------------------|
|--------------------------------------------------------|
|-----------9-------------9-------------9-------------7--|
|-2-2-x-x-x-x---2-2-x-x-x-x---2-2-x-x-x-x---2-2-x-x-x-x--|
|-2-2-x-x-x-7---2-2-x-x-x-7---2-2-x-x-x-7---2-2-x-x-x-5--|
|-2-2-x-x-x-----2-2-x-x-x-----2-2-x-x-x-----2-2-x-x-x----|


************************************

| /   slide up
| \   slide down
| h   hammer-on
|( )  optional
| p   pull-off
| ~   vibrato
| +   harmonic
| x   Mute note
| b   Bend
| pb  Pre-bend
| br  Bend release
| pbr Pre-bend release
| brb Bend release bend

************************************
Suggest correction
comments
print report bad tab
10 comments total. Showing first comments.
0 reply
livinlarge 10 wrote on June 1 2010, 11:11 pm

whats up with the crazy tuning...?

looks pretty good though, been dying for this tab for AGES

0 reply
theonelink 163 wrote on June 2 2010, 08:08 am

Theres a really low open chord in the chorus which requires drop B :/ lol i thought the same when i was learning it

0 reply
SynyGftw 10 wrote on June 23 2010, 06:12 am

Is it me or are there octaves in background in the Chorus???

guest
You may want to rate the tab now too:
select rating
Wanna post a correction for this tab? Suggest correction