Oops, an error
Loading. Please wait.

Country Band Man Tab

10 views 3 this week
no commentswrite comment
1 2 3 4 5
3 more votes to show rating
add to favorites
launch autoscroll
font size
0
reset
how to read this tab
guitar tuner
Autoscroll
slow
fast
+/-
esc
set tempo
stop
Help us to improve Ultimate-Guitar.com Take our survey!
×
Author
Difficulty
Tuning
novice
D# G# C# F# A# D#
About this tab version
Nobody has written a solo of the song on here. Just thought I'd contribute. Was this info helpful? Yes No
Verse and chorus is Em, G, D, Am. Every other time you will add a pinky on the fifth fret of the high E
string for one strum while playing the G chord, and on that same one the Am will be a different strum 
pattern. Just listen to song for timing. It's a easy song to learn to play. Enjoy!


[Solo]

D#|----------------------------------------------------------------------------------------------------------|
A#|----------------------------------------------------------------------------------------------------------|
F#|----------------------------------7---7/9-9/0-------------------------------------------------------------|
C#|-7b-7p5-7p5-5-------5---5-7-5-7/9---9---------------------------------------------------------------------|
G#|--------------5-5h7---7-----------------------------------------------------------------------------------|
D#|----------------------------------------------------------------------------------------------------------|

D#|----------------------------------------------------------------------------------------------------------|
A#|----------------------------------------------------------------------------------------------------------|
F#|-14b-12---------12-14-14b-14b-14b-14b-14b-12-12h14p12-14-12-14-14-12-14b-12---------12----12-14-12-14/16--|
C#|-------14-12-14------------------------------------------------------------12-12h14----14-----------------|
G#|----------------------------------------------------------------------------------------------------------|
D#|----------------------------------------------------------------------------------------------------------|

D#|------------------15-------17-15----------15-------17-15----15-17b-17b-17b-17b-17b-15---------------------|
A#|-15----15/17-17/0----17-15-------17-15-17----17-15-------17---------------------------17p15h17------------|
F#|----16----------------------------------------------------------------------------------------------------|
C#|----------------------------------------------------------------------------------------------------------|
G#|----------------------------------------------------------------------------------------------------------|
D#|----------------------------------------------------------------------------------------------------------|

Power chords for last verse are palm muted. Once again listen to the song for timing.

D#|-x----------------x---------------x--------------x--------------------------------------------------------|
A#|-x----------------x---------------x--------------x--------------------------------------------------------|
F#|-x----------------x---------------x--------------x--------------------------------------------------------|
C#|-x----------------x---------------7--------------x--------------------------------------------------------|
G#|-2----------------5---------------5--------------7--------------------------------------------------------|
D#|-0----------------3---------------x--------------5--------------------------------------------------------|


************************************

| /  Slide up
| p  Pull-off
| b  Bend
| h  Hammer-on
| x  Dead note

************************************
Suggest correction
Give kudos to tab author, rate the tab!
1 2 3 4 5
comments
print report bad tab
guest
You may want to rate the tab now too:
select rating
Wanna post a correction for this tab? Suggest correction