Oops, an error
Loading. Please wait.

Voy A Pensar En Ti tab

version 3
version 3

Whole song

Interactive

43 views 1 this week
no commentswrite comment
1 2 3 4 5
3 more votes to show rating
add to favorites
×
Save as Personal and add changes to this tab that will be seen only by you. Learn more ›
×
You can save this tab as Personal to edit and correct it or add notes. All changes will be seen only by you. Learn more »
launch autoscroll
font size
0
reset
how to read this tab
guitar tuner
edit
Autoscroll
slow
fast
+/-
esc
set tempo
stop
Esto es una corrección de las canciones que habia anteriormente, ya que
aquí incluyo los punteos o arpegios. Los acordes son los mismos que en   
la versión del disco.

Una recomendación es que cada vez que se toque, la primera vez, al 
inicio de cada acorde, la segunda cuerda; se haga casi rozándola y sin 
mucha fuerza, ya que así queda mucho mejor. El 2_6 del principio es un 
slide.


                     LA            MI             LA            MI 

---------------------0-------------0--------------0-------------2------
-------------------2---2---2-----0---0---0------2---2---2-----0---0---0
---2_6--4--2-----2-------2-----1-------1------2-------2-----1-------1--
-----------------------------------------------------------------------
---------------0-------------2--------------0-------------2------------
-----------------------------------------------------------------------

         LA             MI             LA           LA

---------0--------------0--------------0------------0------------------
-------2---2---2------0---0---0------2---2---2------2------------------
-----2-------2------1-------1------2-------2--------2------------------
----------------------------------------------------2------------------
---0--------------2--------------0------------------0------------------
-----------------------------------------------------------------------

Ahora empieza la letra. El arpegio es el mismo que en la inrtoducción,
pero los acordes cambian.


MI               DO#
Oigo pasar ese avion 
                     LA
que te lleva al planeta
            SI
de los olvidos.
MI                     DO#
Se que es dificil que vuelva 
                      LA
a encontrarte que se crucen
              SI
nuestros caminos.

          LA    SI
Voy a pensar en ti
      MI      DO#
unicamente en ti
     LA                SI
guardarte en la caja fuerte 
        MI
de mi memoria
          LA    SI
Voy a pensar en ti
      MI      DO#
basicamente en ti
   LA                SI
es todo lo que necesito
            LA 
para sobrevivir.


Este último arpegio de 'La', continúa con:


         MI             LA             MI             LA

---------0--------------0--------------2--------------0----------------
-------0---0---0------2---2---2------0---0---0------2---2---2----------
-----1-------1------2-------2------1-------1------2-------2------------
-----------------------------------------------------------------------
---2--------------0--------------2--------------0----------------------
----------------------------------------------------------------------- 


         MI             LA         LA

---------0--------------0----------0-----------------------------------
-------0---0---0------2---2---2----2-----------------------------------
-----1-------1------2-------2------2-----------------------------------
-----------------------------------2-----------------------------------
---2--------------0----------------0-----------------------------------
-----------------------------------------------------------------------

MI                 DO#
Leo el periodico y dice
                     LA
que hay guerra otra vez
                  SI
en esta misma Tierra.
MI                  DO#
Dice el hombre del tiempo
               LA
que viene una ola 
           SI
de amor polar.

          LA    SI
Voy a pensar en ti
      MI      DO#
unicamente en ti
     LA                SI
guardarte en la caja fuerte 
        MI
de mi memoria
          LA    SI
Voy a pensar en ti
      MI      DO#
basicamente en ti
   LA                SI
es todo lo que necesito
            LA 
para sobrevivir.


         MI             LA             MI             LA

---------0--------------0--------------2--------------0----------------
-------0---0---0------2---2---2------0---0---0------2---2--------------
-----1-------1------2-------2------1-------1------2-------2------------
-----------------------------------------------------------------------
---2--------------0--------------2--------------0----------------------
-----------------------------------------------------------------------


         MI             LA         LA   

---------0--------------0----------0-----------------------------------
-------0---0---0------2---2---2----2-----------------------------------
-----1-------1------2-------2------2-----------------------------------
-----------------------------------2-----------------------------------
---2--------------0----------------0-----------------------------------
-----------------------------------------------------------------------

MI                  DO#
Voy a pensar solo en ti 
LA                   MI
sin respirar solo en ti
SI                   MI
voy a pensar solo en ti


Ahora el ritmo del estribillo cambia del arpegio que lleva todo el rato
la canción al siguiente ritmo: abajo, abajo, arriba, arriba, abajo, 
arriba.

          LA    SI
Voy a pensar en ti
      MI      DO#
unicamente en ti
     LA                SI
guardarte en la caja fuerte 
        MI
de mi memoria
          LA    SI
Voy a pensar en ti
      MI      DO#
basicamente en ti
   LA                SI
es todo lo que necesito
            LA 
para sobrevivir.


     MI     LA      MI         MI

----------------------0--------0---------------------------------------
-------0------2-----0---4------0---------------------------------------
-----1------2------------------1---------------------------------------
-------------------------------2---------------------------------------
---2------0------2-------------2---------------------------------------
-----------------------------------------------------------------------

            
            
Suggest correction
Creating personal tab
Creating personal tab
You can edit any tab online and save it as your Personal.

You can edit, replace or remove any tab part or add personal notes – all changes will be seen only by you.

Personal tabs can be accessed anytime from any device, even offline.
Learn more »
Give kudos to tab author, rate the tab!
1 2 3 4 5
comments
print report bad tab
guest
Wanna post a correction for this tab? Suggest correction