Oops, an error
Loading. Please wait.

Youre Here tab

version 1
version 1

Whole song

8,126 views 1 this week
no commentswrite comment
1 2 3 4 5
x 10
add to favorites
×
Save as Personal and add changes to this tab that will be seen only by you. Learn more ›
×
You can save this tab as Personal to edit and correct it or add notes. All changes will be seen only by you. Learn more »
launch autoscroll
font size
0
reset
how to read this tab
guitar tuner
edit
Autoscroll
slow
fast
+/-
esc
set tempo
stop
CAPO 1

[Intro]
e:----------------------|----------------------|----------------------|----------------------|
B:----1----0----1----1--|----1----0----1----1--|----1----0----1----1--|----1----0----1----1--|
G:----0----0----0----0--|----0----0----0----0--|----0----0----0----0--|----0----0----0----0--|
D:----------------------|----------------------|---3---3----3----3----|--3----3----3----3----|
A:--3----3-----3----3---|--3----3----3----3----|----------------------|----------------------|
E:----------------------|----------------------|----------------------|----------------------|


Hold on now, i gotta take a deep breath...
e:----------------------|----------------------|----------------------|----------------------|
B:----1----0----1----1--|----1----0----1----1--|----1----0----1----1--|----1----0----1----1--|
G:----0----0----0----0--|----0----0----0----0--|----0----0----0----0--|----0----0----0----0--|
D:----------------------|----------------------|--3----3----3----3----|--3----3----3----3----|
A:--3----3----3----3----|--3----3----3----3----|----------------------|----------------------|
E:----------------------|----------------------|----------------------|----------------------|


made the world before i was born...
e:----------------------|----------------------|----------------------|----------------------|
B:----1----0----1----1--|----1----0----1----1--|----1----0----1----1--|----1----0----1----1--|
G:----0----0----0----0--|----0----0----0----0--|----0----0----0----0--|----0----0----0----0--|
D:----------------------|----------------------|--3----3----3----3----|--3----3----3----3----|
A:--3----3----3----3----|--3----3----3----3----|----------------------|----------------------|
E:----------------------|----------------------|----------------------|----------------------|


el No - el... Jesus our...
e:----------------------|----------------------|----------------------|----------------------|
B:----0----0----1----1--|----1----1----1----1--|----0----0----1----1--|----1----1----1----1--|
G:----0----0----0----0--|----0----0----0----0--|----0----0----0----0--|----0----0----0----0--|
D:--5----5----2----2----|--3----3----3----3----|--5----5----2----2----|--3----3----3----3----|
A:----------------------|----------------------|----------------------|----------------------|
E:----------------------|----------------------|----------------------|----------------------|


...here... I'm holding you so...
e:----------------------|----------------------|----------------------|----------------------|
B:----1----1----1----1--|----1----1----0----0--|----1----1----1----1--|----1----1----0----0--|
G:----0----0----0----0--|----2----2----0----0--|----0----0----0----0--|----2----2----0----0--|
D:----------------------|--3----3----5----5----|----------------------|--3----3----5----5----|
A:--3----3----3----3----|----------------------|--3----3----3----3----|----------------------|
E:----------------------|----------------------|----------------------|----------------------|


face of my savior, king and creator...                  You could of left us...
e:----------------------|----------------------|----------------------|----------------------|
B:----5----5----5----5--|----5----5----5----5--|----1----1----1----1--|----3----3----3----3--|
G:----5----5----5----5--|----5----5----5----5--|----2----2----2----2--|----0----0----0----0--|
D:--7----7----6----6----|--5----5----4----4----|--3----3----3----3----|--5----5----5----5----|
A:----------------------|----------------------|----------------------|----------------------|
E:----------------------|----------------------|----------------------|----------------------|


here.........                             oh.....
e:----------------------|----------------------|----------------------|----------------------|
B:----1----0----1----1--|----1----0----1----1--|----1----0----1----1--|----1----0----1----1--|
G:----0----0----0----0--|----0----0----0----0--|----0----0----0----0--|----0----0----0----0--|
D:----------------------|--3----3----3----3----|----------------------|--3----3----3----3----|
A:--3----3----3----3----|----------------------|--3----3----3----3----|----------------------|
E:----------------------|----------------------|----------------------|----------------------|


(Below is just repeating from the first verse)


don't know how long I'm gonna...
e:----------------------|----------------------|----------------------|----------------------|
B:----1----0----1----1--|----1----0----1----1--|----1----0----1----1--|----1----0----1----1--|
G:----0----0----0----0--|----0----0----0----0--|----0----0----0----0--|----0----0----0----0--|
D:----------------------|----------------------|--3----3----3----3----|--3----3----3----3----|
A:--3----3----3----3----|--3----3----3----3----|----------------------|----------------------|
E:----------------------|----------------------|----------------------|----------------------|


Look at your hands, they're still...
e:----------------------|----------------------|----------------------|----------------------|
B:----1----0----1----1--|----1----0----1----1--|----1----0----1----1--|----1----0----1----1--|
G:----0----0----0----0--|----0----0----0----0--|----0----0----0----0--|----0----0----0----0--|
D:----------------------|----------------------|--3----3----3----3----|--3----3----3----3----|
A:--3----3----3----3----|--3----3----3----3----|----------------------|----------------------|
E:----------------------|----------------------|----------------------|----------------------|


el No - el... Jesus our...
e:----------------------|----------------------|----------------------|----------------------|
B:----0----0----1----1--|----1----1----1----1--|----0----0----1----1--|----1----1----1----1--|
G:----0----0----0----0--|----0----0----0----0--|----0----0----0----0--|----0----0----0----0--|
D:--5----5----2----2----|--3----3----3----3----|--5----5----2----2----|--3----3----3----3----|
A:----------------------|----------------------|----------------------|----------------------|
E:----------------------|----------------------|----------------------|----------------------|


...here… I'm holding you so...
e:----------------------|----------------------|----------------------|----------------------|
B:----1----1----1----1--|----1----1----0----0--|----1----1----1----1--|----1----1----0----0--|
G:----0----0----0----0--|----2----2----0----0--|----0----0----0----0--|----2----2----0----0--|
D:----------------------|--3----3----5----5----|----------------------|--3----3----5----5----|
A:--3----3----3----3----|----------------------|--3----3----3----3----|----------------------|
E:----------------------|----------------------|----------------------|----------------------|


face of my savior, king and creator...                  You could of left us...
e:----------------------|----------------------|----------------------|----------------------|
B:----5----5----5----5--|----5----5----5----5--|----1----1----1----1--|----3----3----3----3--|
G:----5----5----5----5--|----5----5----5----5--|----2----2----2----2--|----0----0----0----0--|
D:--7----7----6----6----|--5----5----4----4----|--3----3----3----3----|--5----5----5----5----|
A:----------------------|----------------------|----------------------|----------------------|
E:----------------------|----------------------|----------------------|----------------------|


here.........                             oh.....
e:----------------------|----------------------|----------------------|----------------------|
B:----1----1----1----1--|----1----1----1----1--|----1----1----1----1--|----1----1----1----1--|
G:----0----0----0----0--|----0----0----0----0--|----0----0----0----0--|----0----0----0----0--|
D:----------------------|--3----3----3----3----|----------------------|--3----3----3----3----|
A:--3----3----3----3----|----------------------|--3----3----3----3----|----------------------|
E:----------------------|----------------------|----------------------|----------------------|


[Bridge]
e:----------------------|----------------------|----------------------|----------------------|
B:----5----5----5----5--|----5----5----5----5--|----1----1----1----1--|----6----6----6----6--|
G:----5----5----5----5--|----5----5----5----5--|----0----0----0----0--|----5----5----5----5--|
D:--7----7----7----7----|--5----5----5----5----|--3----3----3----3----|--0----0----0----0----|
A:----------------------|----------------------|----------------------|----------------------|
E:----------------------|----------------------|----------------------|----------------------|


e:----------------------|----------------------|----------------------|
B:----6----6----6----6--|----1----0----1----1--|----1----0----1----1--|
G:----5----5----5----5--|----0----0----0----0--|----0----0----0----0--|
D:--0----0----0----0----|----------------------|----------------------|
A:----------------------|--3----3----3----3----|--3----3----3----3----|
E:----------------------|----------------------|----------------------|


some day I'm gonna look back on this...
e:----------------------|----------------------|----------------------|----------------------|
B:----1----0----1----1--|----1----0----1----1--|----1----0----1----1--|----1----0----1----1--|
G:----0----0----0----0--|----0----0----0----0--|----0----0----0----0--|----0----0----0----0--|
D:----------------------|----------------------|--3----3----3----3----|--3----3----3----3----|
A:--3----3----3----3----|--3----3----3----3----|----------------------|----------------------|
E:----------------------|----------------------|----------------------|----------------------|


some day you're gonna go home again...              JOY...................
e:----------------------|----------------------|----------------------|--------------1----1--|
B:----1----0----1----1--|----1----0----1----1--|----1----1----1----1--|----0----0----1----1--|
G:----0----0----0----0--|----0----0----0----0--|----2----2----2----2--|----0----0------------|
D:----------------------|----------------------|----------------------|------------3----3----|
A:--3----3----3----3----|--3----3----3----3----|--0----0----0----0----|--5----5--------------|
E:----------------------|----------------------|----------------------|----------------------|


...here... I'm holding you so...
e:----------------------|----------------------|----------------------|----------------------|
B:----1----1----1----1--|----1----1----0----0--|----1----1----1----1--|----1----1----0----0--|
G:----0----0----0----0--|----2----2----0----0--|----0----0----0----0--|----2----2----0----0--|
D:----------------------|--3----3----5----5----|----------------------|--3----3----5----5----|
A:--3----3----3----3----|----------------------|--3----3----3----3----|----------------------|
E:----------------------|----------------------|----------------------|----------------------|


face of my savior, king and creator...                  You could of left us...
e:----------------------|----------------------|----------------------|----------------------|
B:----5----5----5----5--|----5----5----5----5--|----1----1----1----1--|----3----3----3----3--|
G:----5----5----5----5--|----5----5----5----5--|----2----2----2----2--|----0----0----0----0--|
D:--7----7----6----6----|--5----5----4----4----|--3----3----3----3----|--5----5----5----5----|
A:----------------------|----------------------|----------------------|----------------------|
E:----------------------|----------------------|----------------------|----------------------|


     here.......                       You're...  Here...                    Hal-le-lu-jah!
e:----------------------|----------------------|----------------------|----------------------|
B:----1----0----1----1--|----1----0----1----1--|----1----0----1----1--|----1----0----1----1--|
G:----0----0----0----0--|----0----0----0----0--|----0----0----0----0--|----0----0----0----0--|
D:----------------------|--3----3----3----3----|----------------------|--3----3----3----3----|
A:--3----3----3----3----|----------------------|--3----3----3----3----|----------------------|
E:----------------------|----------------------|----------------------|----------------------|


     Here.......               Hal-le-lu-jah!         Here....... 
e:----------------------|----------------------|----------------------|----------------------|
B:----1----0----1----1--|----1----0----1----1--|----1----0----1----1--|----1----0--------1~~-|
G:----0----0----0----0--|----0----0----0----0--|----0----0----0----0--|----0----0------------|
D:----------------------|--3----3----3----3----|----------------------|------------------2~~-|
A:--3----3----3----3----|----------------------|--3----3----3----3----|--3----3----3~~---3~~-|
E:----------------------|----------------------|----------------------|----------------------|




            
            
Suggest correction
Creating personal tab
Creating personal tab
You can edit any tab online and save it as your Personal.

You can edit, replace or remove any tab part or add personal notes – all changes will be seen only by you.

Personal tabs can be accessed anytime from any device, even offline.
Learn more »
comments
print report bad tab
guest
You may want to rate the tab now too:
select rating
Wanna post a correction for this tab? Suggest correction