Oops, an error
Loading. Please wait.

Buonanotte Fiorellino tab

88 views 15 this week
no commentswrite comment
1 2 3 4 5
3 more votes to show rating
add to favorites
×
Save as Personal and add changes to this tab that will be seen only by you. Learn more ›
×
You can save this tab as Personal to edit and correct it or add notes. All changes will be seen only by you. Learn more »
launch autoscroll
font size
0
reset
how to read this tab
guitar tuner
edit
Autoscroll
slow
fast
+/-
esc
set tempo
stop
About this tab version
Based off a youtube cover (https://www.youtube.com/watch?v=48aTprbW6Gc) from which i learned to play the song. I changed some of the bass string, especially in the last verse. Was this info helpful? Yes No
Lyrics are not timed with the tab, they're there just for reference.

[Intro]
    C
e|------0--0-----0--0-----0--0-----0--0--|
B|------1--1-----1--1-----1--1-----1--1--|
G|------0--0-----0--0-----0--0-----0--0--|
D|---------------------------------------|
A|---3-----------------3-----------------|
E|------------3-----------------3--------|

[Verse 1]
    C        Em       Dm                   F        G7       C
e|------0--0-----0--0-----1--1-----1--1--|------1--1-----1--1-----0--0-----0--0--|
B|------1--1-----0--0-----3--3-----3--3--|------1--1-----0--0-----1--1-----1--1--|
G|------0--0-----0--0-----2--2-----2--2--|------2--2-----0--0-----0--0-----0--0--|
D|------------2--------0-----------------|---------------------------------------|
A|---3--------------------------0--------|---------------------3-----------------|
E|---------------------------------------|---1--------3-----------------3--------|
  Buonanotte, buonanotte, amore mio       Buonanotte tra il telefono e il cielo

    C        Em       Dm                   F                 G7
e|------0--0-----0--0-----1--1-----1--1--|------1--1-----1--1-----1--1-----1--1--|
B|------1--1-----0--0-----3--3-----3--3--|------1--1-----1--1-----0--0-----0--0--|
G|------0--0-----0--0-----2--2-----2--2--|------2--2-----2--2-----0--0-----0--0--|
D|------------2--------0-----------------|------------------------------0--------|
A|---3--------------------------0--------|------------3--------------------------|
E|---------------------------------------|---1-----------------3-----------------|
  Ti ringrazio per avermi stupito         Per avermi giurato che è vero

    C        Em       Dm                   D7      G          
e|------0--0-----0--0-----1--1-----1--1--|------2--2-----3--3-----3--3-----3--3--|
B|------1--1-----0--0-----3--3-----3--3--|------1--1-----0--0-----0--0-----0--0--|
G|------0--0-----0--0-----2--2-----2--2--|------2--2-----0--0-----0--0-----0--0--|
D|------------2--------0-----------------|---0-----------------------------------|
A|---3--------------------------0--------|---------------------2-----------------|
E|---------------------------------------|------------3-----------------3--------|
  Il granturco nei campi è maturo         Ed ho tanto bisogno di te

    Em                Am       F                      C        G        C
e|------0--0-----0--0-----0--0-----1--1-----1--1--|------0--0-----3--3-----0--0----0--|
B|------0--0-----0--0-----1--1-----1--1-----1--1--|------1--1-----0--0-----1--1----1--|
G|------0--0-----0--0-----2--2-----2--2-----2--2--|------0--0-----0--0-----0--0----0--|
D|------------------------------2-----------------|-----------------------------------|
A|------------2--------0--------------------------|---3-----------------3-------------|
E|---0-----------------------------------1--------|------------3-----------------3----|
  La coperta è gelata e l'estate è finita          Buonanotte, questa notte è per te

     C
e|------0--0-----0--0--|
B|------1--1-----1--1--|
G|------0--0-----0--0--|
D|---------------------|
A|---3-----------------|
E|------------3--------|

[Verse 2]
    C        Em       Dm                   F        G7       C
e|------0--0-----0--0-----1--1-----1--1--|------1--1-----1--1-----0--0-----0--0--|
B|------1--1-----0--0-----3--3-----3--3--|------1--1-----0--0-----1--1-----1--1--|
G|------0--0-----0--0-----2--2-----2--2--|------2--2-----0--0-----0--0-----0--0--|
D|------------2--------0-----------------|---------------------------------------|
A|---3--------------------------0--------|---------------------3-----------------|
E|---------------------------------------|---1--------3-----------------3--------|
  Buonanotte, buonanotte, fiorellino      Buonanotte tra le stelle e la stanza

    C        Em       Dm                   F                 G7
e|------0--0-----0--0-----1--1-----1--1--|------1--1-----1--1-----1--1-----1--1--|
B|------1--1-----0--0-----3--3-----3--3--|------1--1-----1--1-----0--0-----0--0--|
G|------0--0-----0--0-----2--2-----2--2--|------2--2-----2--2-----0--0-----0--0--|
D|------------2--------0-----------------|------------------------------0--------|
A|---3--------------------------0--------|------------3--------------------------|
E|---------------------------------------|---1-----------------3-----------------|
  Per sognarti devo averti vicino         E vicino non è ancora abbastanza

    C        Em       Dm                   D7      G          
e|------0--0-----0--0-----1--1-----1--1--|------2--2-----3--3-----3--3-----3--3--|
B|------1--1-----0--0-----3--3-----3--3--|------1--1-----0--0-----0--0-----0--0--|
G|------0--0-----0--0-----2--2-----2--2--|------2--2-----0--0-----0--0-----0--0--|
D|------------2--------0-----------------|---0-----------------------------------|
A|---3--------------------------0--------|---------------------2-----------------|
E|---------------------------------------|------------3-----------------3--------|
  Ora un raggio di sole si è fermato      Proprio sopra il mio biglietto scaduto

    Em                Am       F                      C        G        C
e|------0--0-----0--0-----0--0-----1--1-----1--1--|------0--0-----3--3-----0--0----0--|
B|------0--0-----0--0-----1--1-----1--1-----1--1--|------1--1-----0--0-----1--1----1--|
G|------0--0-----0--0-----2--2-----2--2-----2--2--|------0--0-----0--0-----0--0----0--|
D|------------------------------2-----------------|-----------------------------------|
A|------------2--------0--------------------------|---3-----------------3-------------|
E|---0-----------------------------------1--------|------------3-----------------3----|
  Tra i tuoi fiocchi di neve e le tue foglie di tè   Buonanotte, questa notte è per te

     C
e|------0--0-----0--0--|
B|------1--1-----1--1--|
G|------0--0-----0--0--|
D|---------------------|
A|---3-----------------|
E|------------3--------|

[Verse 3]
     D         F#m      Em                    G        A        D
e|------2--2------2--2-----0--0-----0--0--|------1--1-----0--0-----2--2-----2--2--|
B|------3--3------2--2-----0--0-----0--0--|------0--0-----2--2-----3--3-----3--3--|
G|------2--2------2--2-----0--0-----0--0--|------0--0-----2--2-----2--2-----2--2--|
D|---0---------4--------2-----------------|---------------------0-----------------|
A|-------------------------------2--------|------------0-----------------0--------|
E|----------------------------------------|---3-----------------------------------|
  Buonanotte, buonanotte, monetina         Buonanotte tra il mare e la pioggia
  
     D         F#m      Em                    G                 A7
e|------2--2------2--2-----0--0-----0--0--|------1--1-----1--1-----0--0-----0--0--|
B|------3--3------2--2-----0--0-----0--0--|------0--0-----0--0-----2--2-----2--2--|
G|------2--2------2--2-----0--0-----0--0--|------0--0-----0--0-----0--0-----0--0--|
D|---0---------4--------2-----------------|------------0--------2-----------------|
A|-------------------------------2--------|------------------------------0--------|
E|----------------------------------------|---3-----------------------------------|
  La tristezza passerà domattina           E l'anello resterà sulla spiaggia

     D         F#m      Em                    E7                A
e|------2--2------2--2-----0--0-----0--0--|------0--0-----0--0-----0--0-----0--0--|
B|------3--3------2--2-----0--0-----0--0--|------0--0-----0--0-----2--2-----2--2--|
G|------2--2------2--2-----0--0-----0--0--|------1--1-----1--1-----2--2-----2--2--|
D|---0---------4--------2-----------------|------------0--------2-----------------|
A|-------------------------------2--------|--2---------------------------0--------|
E|----------------------------------------|---------------------------------------|
  Gli uccellini nel vento non si fanno mai male, hanno ali più grandi di me

     F#m                Bm       G                     D        A        D
e|------2--2-----2--2------2--2-----1--1-----1--1--|------2--2-----0--0-----2--2-----2--2--|
B|------2--2-----2--2------3--3-----0--0-----0--0--|------3--3-----2--2-----3--3-----3--3--|
G|------2--2-----2--2------4--4-----0--0-----0--0--|------2--2-----2--2-----2--2-----2--2--|
D|---4------------------4--------------------------|---0-----------------0-----------------|
A|------------4---------------------------2--------|------------0-----------------0--------|
E|-------------------------------3-----------------|---------------------------------------|
  E dall'alba al tramonto sono soli nel sole        Buonanotte, questa notte è per te

[Outro]
     D         F#m      Em                    G        A        D
e|------2--2------2--2-----0--0-----0--0--|------1--1-----0--0-----2--2--2--------|
B|------3--3------2--2-----0--0-----0--0--|------0--0-----2--2-----3--3--3--------|
G|------2--2------2--2-----0--0-----0--0--|------0--0-----2--2-----2--2--2--------|
D|---0---------4--------2-----------------|---------------------0--------0--------|
A|-------------------------------2--------|------------0--------------------------|
E|----------------------------------------|---3-----------------------------------|

            
            
Suggest correction
Creating personal tab
Creating personal tab
You can edit any tab online and save it as your Personal.

You can edit, replace or remove any tab part or add personal notes – all changes will be seen only by you.

Personal tabs can be accessed anytime from any device, even offline.
Learn more »
Give kudos to tab author, rate the tab!
1 2 3 4 5
comments
print report bad tab
guest
You may want to rate the tab now too:
select rating
Wanna post a correction for this tab? Suggest correction