Oops, an error
Loading. Please wait.

Star Spangled Banner Bass Tab

version 1
version 1

Whole song

Interactive

6,468 views 12 this week
3 commentsread comments
1 2 3 4 5
excellent!
x 15
add to favorites
launch autoscroll
font size
0
reset
guitar tuner
Tab Pro tools
  • play this tab
  • loop segment
  • change instrument
  • show fretboard
  • metronome
×
Best way to learn
"Star Spangled Banner"
Autoscroll
slow
fast
+/-
esc
set tempo
stop
Contributor
Difficulty
novice
I Think this tab is correct... if not it atleast sounds good and is easy to read... enjoy!
Key:
*X* = Let It Ring
/ = Hammer On
\= Pull Off

G|---------------------*9*------11/13--11--9-------------------|
D|*--9--------------9---------------------------------*9*------|
A|*-----11------11----------------------------11--13-----------|
E|----------12-------------------------------------------------|

------11/13--11--9--*8*------6--8--9--9-------------|
9--9-------------------------------------9--6-------|
-----------------------------------------------7----|
----------------------------------------------------|

G|--13--13--13--14--16--*16*------14--13------13--14-*14---|
D|----------------------------------------16---------------|
A|---------------------------------------------------------|
E|---------------------------------------------------------|

---------14--13---------------------------------------------|
-----------------16--14--*13*------11-13--14----------------|
-----------------------------------------------11--13-*14*--|
------------------------------------------------------------|

G|---------------------------------11--13--14--13--11---------------|
D|------14--14-14\13--11--11--11----------------------14-13/14--*13*|
A|--14--------------------------------------------------------------|
E|------------------------------------------------------------------|

------------9--11--13--14--*16*------9--11--13--14--11--*9*|
------9--9-------------------------------------------------|
-----------------------------------------------------------|
-----------------------------------------------------------|
comments
print report bad tab
3 comments total.
+1 reply
bcwfootball54 wrote on December 5 2007, 04:54 pm

if its not obvious you play


G|---------------------*9*------11/13--11--9-------------------|
D|*--9--------------9-----------------------------
----*9*------|
A|*-----11------11----------------------------11--13-----------|
E|----------12------------------------
-------------------------|

twice

+1 reply
FbSa wrote on June 12 2008, 10:04 am

Go America!

0 reply
Ges613 wrote on February 19 2014, 09:08 pm

Sounds awesome!!!!!!

I want to post or [tab]
guest
You may want to rate the tab now too:
select rating
Please do not post tabs as comments. Select "correction" instead!