Oops, an error
Loading. Please wait.

Star Spangled Banner Tab

version 9
version 9

Whole song

Interactive

1,406 views 1 this week
no commentswrite comment
1 2 3 4 5
3 more votes to show rating
add to favorites
launch autoscroll
font size
0
reset
how to read this tab
guitar tuner
Autoscroll
slow
fast
+/-
esc
set tempo
stop
Help us to improve Ultimate-Guitar.com Take our survey!
×
Author
Difficulty
novice
This is my version of the Star Spangled banner
Its pretty good and is not boring like the original

x2
e[--------------------------------------------------------|
b[--------------------------------------------------------|
g[-----------------------5----9---7--5--------------------|
d[---5---2------2----5------------------2--4-5----5-5-----|
a[-----------3--------------------------------------------|
e[--------------------------------------------------------|

e[--------------------------------------------------------|
b[--------------------------------------------------------|
g[----9---7---5---4---2---4---5--5----0-------------------|
d[---------------------------------------2----------------|
a[------------------------------------------3-------------|
e[--------------------------------------------------------|

x1
e[--------------------------------------------------------|
b[--------------------------------------------------------|
g[----9--9--9--10---12-12---10---9----7----9----10--10----|
d[--------------------------------------------------------|
a[--------------------------------------------------------|
e[--------------------------------------------------------|

e[--------------------------------------------------------|
b[--------------------------------------------------------|
g[----10---9---7---5----4----2--4--5----------------------|
d[-------------------------------------2---4--5-----------|
a[--------------------------------------------------------|
e[--------------------------------------------------------|

e[--------------------------------10--13--12--10----------|
b[------13--13--13-12----------------------------13-13-12-|
g[---12---------------14--14--14--------------------------|
d[--------------------------------------------------------|
a[--------------------------------------------------------|
e[--------------------------------------------------------|

e[--------------8---10---12--13---15----8---10--12--13-10-|
b[-----8---8----------------------------------------------|
g[--------------------------------------------------------|
d[--------------------------------------------------------|
a[--------------------------------------------------------|
e[--------------------------------------------------------|

e[--------------------------------------------------------|
b[--------------------------------------------------------|
g[--------5-----------------------------------------------|
d[--------5-----------------------------------------------|
a[--------3-----------------------------------------------|
e[--------3-----------------------------------------------|
Suggest correction
Give kudos to tab author, rate the tab!
1 2 3 4 5
comments
print report bad tab
guest
You may want to rate the tab now too:
select rating
Wanna post a correction for this tab? Suggest correction