Oops, an error
Loading. Please wait.

The Star Spangled Banner Bass Tab

9,610 views 9 this week
1 commentread comment
1 2 3 4 5
excellent!
x 4
add to favorites
launch autoscroll
font size
0
reset
guitar tuner
Tab Pro tools
  • play this tab
  • loop segment
  • change instrument
  • show fretboard
  • metronome
Autoscroll
slow
fast
+/-
esc
set tempo
stop
Contributor
**I was just playing one day and decided to try to tab something.  This is my first tab 
feel free to comment and give some positive criticism**

Title: The Star Spangled Banner
Author: Francis Scott Key

G ------------------11-9-7-----------------11-9-7-6~~-4-6-7-7----------|
D -------------12~~----------------------------------------------------|
A -12-9-5-9-12-------------9-11-12~~-12-12--------------------12-9-5---|
E ---------------------------------------------------------------------|

(Play the last two lines twice)

G -11-11-11-12-14-14~~-12-11-9~~-11-12-12~~-12-11~~-9--------------------|
D ----------------------------------------------------12-11~~-9-11-12----|
A -----------------------------------------------------------------------|
E -----------------------------------------------------------------------|

G -------------------------------9-12-11-9-----------------------|
D -------------12-12-12-11-9-9-9-----------12-12-11~~-------12---|
A 9-11-12~~-12----------------------------------------12-12------|
E ---------------------------------------------------------------|

G 9-11-12-14~~---9-11~~-12-9~~----|
D--------------12------------12---|
A---------------------------------|
E---------------------------------|

~~= hold out note

Well thats it.  Remeber that this is my first tab.  Hope you liked it.
comments
print report bad tab
1 comment total.
+1 reply
beatlebass wrote on April 3 2010, 11:36 am

great, thank you 5 *'s im so playin this on 4th of July

I want to post or [tab]
guest
You may want to rate the tab now too:
select rating
Please do not post tabs as comments. Select "correction" instead!