Oops, an error
Loading. Please wait.

Prohibido tab

version 2
version 2

Whole song

39 views 1 this week
no commentswrite comment
1 2 3 4 5
3 more votes to show rating
add to favorites
×
Save as Personal and add changes to this tab that will be seen only by you. Learn more ›
×
You can save this tab as Personal to edit and correct it or add notes. All changes will be seen only by you. Learn more »
launch autoscroll
font size
0
reset
how to read this tab
guitar tuner
edit
Autoscroll
slow
fast
+/-
esc
set tempo
stop
Pues esta es mi primer colaboracion.
Ojala les sirva esta es mi version de
"Prohibido" de "El Mastuerzo".

INTRO(2 veces):

  F          Am      Dm                 Bb                   C
1|----------------0-|-----3---1--------|-------1-------1----|-------0-0---0--|
2|-----1--------1---|-------------3----|-----3---1h3--------|-----1---1------|
3|---2---2----2-----|---2---2---2------|---3---------3---3--|---0-----0-0---0|
4|------------------|-0----------------|--------------------|---------2------|
5|----------0-------|---------------0--|-1------------------|-3-------3------|
6|-1----------------|------------------|--------------------|----------------|

El verso se toca igual que el into

F      Am              Dm
  Aqui estoy detras de mi nariz
Bb                  C
  Bohemio renegado sin destino
F      Am              Dm
  Disidente como un equivoco un error
Bb                       C
  Un loco un transgresor un mal parido

Dm                   Bb [------- Estos acordes van con cejilla
 Con los puños apretados
                    C                               F
 Con la cara endurecida y este amargo en la saliba uhh


INTRO

F      Am         Dm
 Aqui voy en esta nube gris
Bb                    C
 Con tanta necesedad echando chispas
F       Am          Dm
 Exiliado en el descaro de vivir
Bb                     C
 Como un tumor maligno en tu sonrisa
Dm                    Bb
 Veras que no estoy solo
                      C
 Somos muchos los proscritos los bastardos los malditos uhh

Coro:
Dm         Am  Bb                         C
 Y estoy aqui    oculto en el rincon de lo prohibido
Dm         Am   Bb                       C
 Pensando en ti   tratando de ser otro pero el mismo
Dm             Bb                   C
 Insurrecto perseguido, ilegal y fujitivo
 C                    C
 Tengo un sueño clandestino para ti


INTERMEDIO:

  F                  C                  Bb                  F
1|---------1--------|---------0--------|---------------1---|---------1------|
2|-----1-------1----|-----1-------1----|-----3---1h3-------|-----1-------1--|
3|---2---2---2---2--|---0---0---0---0--|---3---3-----3---3-|-- 2---1---2---2|
4|------------------|------------------|-------------------|----------------|
5|------------------|-3----------------|-1-----------------|----------------|
6|-1----------------|------------------|-------------------|-1--------------|
  C
1|----------0----0--|
2|-----1---------1--|
3|---0---0----0--0--|
4|---------------2--|
5|-3-------------3--|
6|------------------|


En esta parte sube un tono                   Se toca en todos los D

G     Bm         Em                         1|-----3---2---------|
 Y que esperas de mi         Se toca este   2|-------------3-----|
C                    D [---- arreglo        3|---2---2---2---2---|
 Si ya nomas me queda este camino           4|-0-----------------|
G       Bm          Em
 Siempre huyendo en silencio
C                 D
 Con esta soledad y mis canciones
Em                  C
 De este mundo pies de plomo
               D
 Aburrido y fanfarron perfumado y socarron uhh

Coro:

Em        Bm   C                         D
 Y estoy aqui   oculto en el rincon de lo prohibido
Em         Bm    C                      D
 Pensando en ti   tratando de ser otro pero el mismo
Em             C                   D
 Insurrecto perseguido ilegal y fujitivo
  D                 D
 Tengo un sueño clandestino para ti.

FINAL:

  G                  D                   C
1|---------3--------|-----0h2---3---2---|----------0--------|---------3-------|
2|-----3-------3----|-------------------|-----1--------1----|-----3-------3---|
3|---0---0---0---0--|---2-----2---2---2-|---0---0----0---0--|---0---0---0---3-|
4|------------------|-0-----------------|-------------------|-----------------|
5|------------------|-------------------|-3-----------------|-----------------|
6|-3----------------|-------------------|-------------------|-3---------------|

  D                   Em                D                 G
1|-----0h2---3---2---|---------0-------|-----3---2-------|---------3--------|
2|-------------------|-----0-------0---|-------------3---|-----3-------3----|
3|---2-----2---2---2-|---0---0---0---0-|---2---2---2---2-|---0---0---0----0-|
4|-0-----------------|-----------------|-0---------------|------------------|
5|-------------------|-----------------|-----------------|------------------|
6|-------------------|-0---------------|-----------------|-3----------------|

  C                 G
1|---------0-------|---------3-------3--|
2|-----1-------1---|-----3-------3---3--|
3|---0---0---0---0-|---0---0---0---0-0--|
4|-----------------|-----------------0--|
5|-3---------------|-----------------2--|
6|-----------------|-3---------------3--|
Suggest correction
Creating personal tab
Creating personal tab
You can edit any tab online and save it as your Personal.

You can edit, replace or remove any tab part or add personal notes – all changes will be seen only by you.

Personal tabs can be accessed anytime from any device, even offline.
Learn more »
Give kudos to tab author, rate the tab!
1 2 3 4 5
comments
print report bad tab
guest
Wanna post a correction for this tab? Suggest correction