Oops, an error
Loading. Please wait.

San Fernando tab

version 1
version 1

Whole song

47 views 3 this week
no commentswrite comment
1 2 3 4 5
3 more votes to show rating
add to favorites
×
Save as Personal and add changes to this tab that will be seen only by you. Learn more ›
×
You can save this tab as Personal to edit and correct it or add notes. All changes will be seen only by you. Learn more »
launch autoscroll
font size
0
reset
how to read this tab
guitar tuner
edit
Autoscroll
slow
fast
+/-
esc
set tempo
stop
Del lucero de la noche

       Em         G
E|----------------3-
B|------------------
G|------------------
D|-----2------------
A|-----2----------2-
E|----------------3-


Saqué lo que te digo

                 Bm

E|---------------2---
B|---------------3---
G|---------------4---
D|---------------4---
A|---------------2---
E|---------------2---


las adelfas


E|-----0-0----
B|-----0--0-0-
G|-----0---0--
D|---2-2------
A|-----2------
E|------------

de tu patio


E|-----0-0----
B|-----0--0-0-
G|-----0---0--
D|-2-1-1------
A|-----2------
E|------------


el jardin de los ahorcados

E|-----0-0--------0-0-------
B|-----0--0-0-----0--0-0----
G|-----0---0------0---0-----
D|-1-0-0------0---0---------
A|-----2--------4-4---------
E|-----3----------3---------


los senderos se bifurcan en

       C

E|-----0-0------0------
B|-----1--0-0---1------
G|-0---0---0----0------
D|---4-2--------2------
A|-----3--------3------
E|---------------------


San Fernando

       D

B|-----2-----
G|-----3-----
D|-----2-----
A|-----------
E|-----------
E|-----------


De los juncos de la tarde

       Em         G
E|----------------3-
B|------------------
G|------------------
D|-----2------------
A|-----2----------2-
E|----------------3-


saqué lo que te digo

                 Bm

E|---------------2---
B|---------------3---
G|---------------4---
D|---------------4---
A|---------------2---
E|---------------2---


los marismas

E|-----0-0----
B|-----0--0-0-
G|-----0---0--
D|---2-2------
A|-----2------
E|------------

en invierno

E|-----0-0----
B|-----0--0-0-
G|-----0---0--
D|-2-1-1------
A|-----2------
E|------------

los musicos del carro

E|-----0-0--------0-0-------
B|-----0--0-0-----0--0-0----
G|-----0---0------0---0-----
D|-1-0-0------0---0---------
A|-----2--------4-4---------
E|-----3----------3---------


afinan hoy por ti

       C

E|-----0-0------0------
B|-----1--0-0---1------
G|-0---0---0----0------
D|---4-2--------2------
A|-----3--------3------
E|---------------------


y es muy temprano

       D

E|-----2-----
B|-----3-----
G|-----2-----
D|-----------
A|-----------
E|-----------


a ver como lo digo (x3)

   Bm            C

E|-2---------------
B|-3-------------1-
G|-4---------------
D|-4-------------2-
A|-2-------------3-
E|-2---------------

(El resto de la canción mantiene los mismos acordes
y sigue la estructura ya explicada)

Del brumor de los tendidos
saqué lo que te digo
no te gusta
que conduzca
los domingos
a ver si pasa
a ver si pasa algo por el camino


De pasarlo bien contigo
saqué lo que te digo
SI te acuerdas
de una cosa
que hicimos
sin pensarlo
si te quedas hasta tarde también salgo


a ver como lo digo
a ver como lo digo
a ver como lo digo
a ver como lo digo

            
            
Suggest correction
Creating personal tab
Creating personal tab
You can edit any tab online and save it as your Personal.

You can edit, replace or remove any tab part or add personal notes – all changes will be seen only by you.

Personal tabs can be accessed anytime from any device, even offline.
Learn more »
Give kudos to tab author, rate the tab!
1 2 3 4 5
comments
print report bad tab
guest
Wanna post a correction for this tab? Suggest correction