Oops, an error
Loading. Please wait.

Castaway Tab

version 1
version 1
44,007 views 66 this week
2 commentsread comments
1 2 3 4 5
x 5
add to favorites
launch autoscroll
font size
0
reset
how to read this tab
guitar tuner
Autoscroll
slow
fast
+/-
esc
set tempo
stop
Help us to improve Ultimate-Guitar.com Take our survey!
×
Author
Difficulty
Tuning
intermediate
D A D G B E
Artist: Franco
Song: Castaway
Album: Franco
Tabbed By: PhRiStO C.

This song is played with 3 guitars originally but I minimized it to 2 guitars for those 
want to play it that way, and because some parts were just ghost notes. So here is what 
came up with..

Lead Guitar:


[Intro]

Clean
e|------------------------------------------------------------------|
B|------------------------------------------------------------------|
G|-------------------------------4-----4-----4-6-4------------------|
D|--------6-----6-----6------------5-----5---------5----------------|
A|----------6-----6-----6--3-3-3-----3-----3------------------------|
D|--6-6-6-----6-----6-----------------------------------------------|

e|-------------------------------------------|
B|-------------------------------------------|
G|---------------------------5~~-------------|
D|--------6-----6-----6------5~~-------------|
A|----------6-----6-----6----3~~-------------|
D|--6-6-6-----6-----6------------------------|

Overdriven
e|-------------------------------------------------|
B|-------------------------------------------------|
G|---------------------------4-------4-6-4---------|
D|--------6------6-------------5-----------5-------|
A|----------6------6---3-3-3-----3-3---------------|
D|--6-6-6-----6-6----------------------------------|

e|--------------------------------------------------------------|
B|--------------------------------------------------------------|
G|---------------------------4-------4-6-4------6-6-6-6-6-6-6-6-|
D|--------6------6-------------5-----------5----6-6-6-6-6-6-6-6-|
A|----------6------6---3-3-3-----3-3------------4-4-4-4-4-4-4-4-|
D|--6-6-6-----6-6-----------------------------------------------|


[Verse 1]

e|------------------------------------------------|
B|------------------------------------------------|
G|------------------------------4-----4-----------|
D|--------6-----6-----------------5-----5-3-5-----|
A|----------6-----6---6/3-3-3-3-----3-------------|
D|--6-6-6-----6-----------------------------------|

e|------------------------------------------------------------|
B|------------------------------------------------------------|
G|----------------------------------4-----4-----0-0-0-2-2-1-1-|
D|--------6-----6---------------------5-----5-----------------|
A|----------6-----6---6h7p6/3-3-3-3-----3-----3---------------|
D|--6-6-6-----6-----------------------------------------------|

e|--------------------------------------------------------------|
B|--------------------------------------------------------------|
G|------------------------------4-----4---------6-6-6-6-6-6-6-6-|
D|--------6-----6-----------------5-----5-3-5---6-6-6-6-6-6-6-6-|
A|----------6-----6---6/3-3-3-3-----3-----------4-4-4-4-4-4-4-4-|
D|--6-6-6-----6-------------------------------------------------|

e|------------------------------------------------|
B|------------------------------------------------|
G|------------------------------4-----4-----------|
D|--------6-----6-----------------5-----5-3-5-----|
A|----------6-----6---6/3-3-3-3-----3-------------|
D|--6-6-6-----6-----------------------------------|

e|------------------------------------------------------------|
B|------------------------------------------------------------|
G|----------------------------------4-----4-----0-0-0-2-2-1-1-|
D|--------6-----6---------------------5-----5-----------------|
A|----------6-----6---6h7p6/3-3-3-3-----3-----3---------------|
D|--6-6-6-----6-----------------------------------------------|

e|--------------------------------------------------------------|
B|--------------------------------------------------------------|
G|------------------------------4-----4---------6-6-6-6-6-6-6-6-|
D|--------6-----6-----------------5-----5-3-5---6-6-6-6-6-6-6-6-|
A|----------6-----6---6/3-3-3-3-----3-----------4-4-4-4-4-4-4-4-|
D|--6-6-6-----6-------------------------------------------------|


[Chorus]

e|----4~-----4~-----9-5-4h5p4/5----9---5-7/9-----|
B|--5------5------5--------------5---9-----------|
G|-----------------------------------------------|
D|-----------------------------------------------|
A|-----------------------------------------------|
D|-----------------------------------------------|

e|----4~-----4~-----9-5-4h5p4/5----9-5---5h7-5---|
B|--5------5------5--------------5-----5---------|
G|-----------------------------------------------|
D|-----------------------------------------------|
A|-----------------------------------------------|
D|-----------------------------------------------|


[Break]

e|-------------------------------------------------|
B|-------------------------------------------------|
G|---------------------------4-------4-6-4---------|
D|--------6------6-------------5-----------5-------|
A|----------6------6---3-3-3-----3-3---------------|
D|--6-6-6-----6-6----------------------------------|


[Verse 2]

e|------------------------------------------------|
B|------------------------------------------------|
G|------------------------------4-----4-----------|
D|--------6-----6-----------------5-----5-3-5-----|
A|----------6-----6---6/3-3-3-3-----3-------------|
D|--6-6-6-----6-----------------------------------|

e|------------------------------------------------------------|
B|------------------------------------------------------------|
G|----------------------------------4-----4-----0-0-0-2-2-1-1-|
D|--------6-----6---------------------5-----5-----------------|
A|----------6-----6---6h7p6/3-3-3-3-----3-----3---------------|
D|--6-6-6-----6-----------------------------------------------|

e|--------------------------------------------------------------|
B|--------------------------------------------------------------|
G|------------------------------4-----4---------6-6-6-6-6-6-6-6-|
D|--------6-----6-----------------5-----5-3-5---6-6-6-6-6-6-6-6-|
A|----------6-----6---6/3-3-3-3-----3-----------4-4-4-4-4-4-4-4-|
D|--6-6-6-----6-------------------------------------------------|


[Chorus]

e|----4~-----4~-----9-5-4h5p4/5----9---5-7/9-----|
B|--5------5------5--------------5---9-----------|
G|-----------------------------------------------|
D|-----------------------------------------------|
A|-----------------------------------------------|
D|-----------------------------------------------|

e|----4~-----4~-----9-5-4h5p4/5----9-5---5h7-5---|
B|--5------5------5--------------5-----5---------|
G|-----------------------------------------------|
D|-----------------------------------------------|
A|-----------------------------------------------|
D|-----------------------------------------------|


[Bridge]

e|------------------------------------------------------------------|
B|--------------------8-8-8-8-8/9-9-9-9-9----8-8-8-8-8/9-9-9-9-9----|
G|--6-6-6-6-6-6-6-6-------------------------------------------------|
D|--6-6-6-6-6-6-6-6---6-6-6-6-6/7-7-7-7-7----6-6-6-6-6/7-7-7-7-7----|
A|--4-4-4-4-4-4-4-4-------------------------------------------------|
D|------------------------------------------------------------------|

e|------------------------------------------------------------------|
B|--------------------8-8-8-8-8/9-9-9-9-9----8-8-8-8-8/9-9-9-9-9----|
G|--6-6-6-6-6-6-6-6-------------------------------------------------|
D|--6-6-6-6-6-6-6-6---6-6-6-6-6/7-7-7-7-7----6-6-6-6-6/7-7-7-7-7----|
A|--4-4-4-4-4-4-4-4-------------------------------------------------|
D|------------------------------------------------------------------|

e|-------------------------------------------------------------------------|
B|----------8-8-------------8-8-------------8-8----------8-9-8-9-8-9-11/13-|
G|--6-6-8-8-----8-8-6-6-8-8-----8-8-6-6-8-8-----8-8-(2x)-------------------|
D|-------------------------------------------------------------------------|
A|-------------------------------------------------------------------------|
D|-------------------------------------------------------------------------|

e|---------------------------------------------------------------|
B|----------8-8-------------8-8-------------8-8----------8~~~~~~-|
G|--6-6-8-8-----8-8-6-6-8-8-----8-8-6-6-8-8-----8-8-(2x)---------|(Break)
D|---------------------------------------------------------------|
A|---------------------------------------------------------------|
D|---------------------------------------------------------------|


[Chorus]

e|----4~-----4~-----9-5-4h5p4/5----9---5-7/9-----|
B|--5------5------5--------------5---9-----------|
G|-----------------------------------------------|
D|-----------------------------------------------|
A|-----------------------------------------------|
D|-----------------------------------------------|

e|----4~-----4~-----9-5-4h5p4/5----9-5---5h7-5---|
B|--5------5------5--------------5-----5---------|
G|-----------------------------------------------|
D|-----------------------------------------------|
A|-----------------------------------------------|
D|-----------------------------------------------|


[Outro]

e|-------------------------------------------------|
B|-------------------------------------------------|
G|---------------------------4-------4-6-4---------|
D|--------6------6-------------5-----------5-------|
A|----------6------6---3-3-3-----3-3---------------|
D|--6-6-6-----6-6----------------------------------|

e|--------------------------------------------------------------|
B|--------------------------------------------------------------|
G|---------------------------4-------4-6-4------11~~------------|
D|--------6------6-------------5-----------5----11~~------------|
A|----------6------6---3-3-3-----3-3------------9-~~------------|
D|--6-6-6-----6-6-----------------------------------------------|

Rhythm Guitar: Overdriven (light strokes on the verses)

   G#        C        C#       F#       F
e|----|   e|----|  e|----|  e|----|  e|----|
B|----|   B|----|  B|----|  B|----|  B|----|
G|----|   G|-5--|  G|-6--|  G|-11-|  G|-10-|
D|-6--|   D|-5--|  D|-6--|  D|-11-|  D|-10-|
A|-6--|   A|-3--|  A|-4--|  A|-9--|  A|-8--|
D|-6--|   D|----|  D|----|  D|----|  D|----|


[Intro]

G#  C  G#  C  C#


[Verse 1]

G#  C  G#  C  G#  C  C#
Step to the farthest side of my dreams
Be careful of what you might see
So careless inside I'm dying
Slowly

G#  C  G#  C  G#  C  C#
Sail into my wildest dreams
Wrapped up like a little bum's shoelace
High strung but I am trying
Hopelessly


[Chorus]

C  G#  C
On my own
Cast away
Trapped and caught in a dream
C#  G#  C
Darkened skies, tidal waves
But I am movin on


[Break]

G#  C  G#  C


[Verse 2]

G#  C  G#  C  G#  C  C#
See through the hallowed eyes in my dreams
A psycho traumatic hypnotic scene
A mountain of dust to ponder
Over


[Chorus]

C  G#  C
On my own
Cast away
Trapped and caught in a dream
C#  G#  C
Darkened skies, tidal waves
But I am movin on


[Bridge]

C  G#  C
Well I'm blind
Reactions too late.

C  G#  C
I'm behind
But catch me I'm movin on
And on...

G#  C  F#  F
G#  C  F#

[Chorus]

C  G#  C
On my own
Cast away
Trapped and caught in a dream
C#  G#  C
Darkened skies, tidal waves
But I am movin on


[Outro]

G#  C  G#  C  G#  C  F#



************************************

| ~  Vibrato
| /  Slide up
| h  Hammer-on
| p  Pull-off

************************************
Suggest correction
comments
print report bad tab
2 comments total.
0 reply
angelfrhell13 10 Nov 25, 2013 07:26 PM

nice tab but it's incorrect

0 reply
songerph 80 Aug 12, 2015 06:16 AM

Lack of accuracy. Clearly wrong. it is not accurate. there are a lot of misplaced notes. it doesnt sound like the song. wrong chords for the second guitar.

guest
You may want to rate the tab now too:
select rating
Wanna post a correction for this tab? Suggest correction