Oops, an error
Loading. Please wait.

Song For The Suspect bass

version 1
version 1

Whole song

by Franco
22,215 views 54 this week
1 commentread comment
1 2 3 4 5
x 7
add to favorites
×
Save as Personal and add changes to this tab that will be seen only by you. Learn more ›
×
You can save this tab as Personal to edit and correct it or add notes. All changes will be seen only by you. Learn more »
launch autoscroll
font size
0
reset
guitar tuner
edit
Autoscroll
slow
fast
+/-
esc
set tempo
stop
Author
Difficulty
tab by Ian Paolo G. Marco
from "AMA binan Computer college"

add me qng may ask kau:  bullet_4my_valentine28@yahoo.com
plss rate this......

the best to...............
ganito sya pag

standard tuning
then..

drop D

eto ung bass
parehas lng sya sa una qng tabs dagdagan nyu nlng ng mga
scale... ahehe


*intro:

G|---------------------------------------------------------|
D|---------------------------------------------------------|
A|---------------------------------------------------------|
D|--3-3h6-3--3--3h6-3h4-3h6-3h4--3-3h6-3--3-3h6-3--3h4~----|

G|---------------------------------------------------------|
D|---------------------------------------------------------|
A|---------------------------------------------------------|
D|--3-3h6-3--3--3h6-3h4-3h6-3h4--3-3h6-3--3-3h6-3h4-4\~~---|

guitar 1&2
G|---------------------------------------------------------|
D|---------------------------------------------------------|
A|------------------3h4p3~--------------------4~~----------|
D|-3-33-63---3-3---6---------3-33-63---3-3--36-------------|


G|---------------------------------------------------------|
D|---------------------------------------------------------|
A|------------------3h4p3~------------------43-------------|
D|-3-33-63---3-3---6---------3-33-63---3-3----6~-----------|


G|---------------------------------------------------------|
D|---------------------------------------------------------|
A|------------------3h4p3~--------------------4~~----------|
D|-3-33-63---3-3---6---------3-33-63---3-3--36-------------|


G|---------------------------------------------------------|
D|---------------------------------------------------------|
A|------------------3h4p3~---------------------------------|
D|-3-33-63---3-3---6---------3-33-63---33--1~~-------------|

*Verse:

G|---------------------------------------------------------|
D|---------------------------------------------------------|(x2)
A|---------------------------------------------------------|
D|---33-33h4---33-346---33-3-3h4---33-346----4p3-3p1~~-----|

*riff

G|-----------------------------------------------------------------------------|
D|-----------------------------------------------------------------------------|
A|-----------------------------------------------------------------------------|
D|--3~-334333333334643-3343333333311---3~~334333333334643-33433333333----------|(X2)


*repeat Verse


*then refrain:
    Another    new day to.......
G|---------------------------------------------|
D|---------------------------------------------|
A|-4444444444--4/66666/8-8-8-8-8-\666----------|
D|---------------------------------------------|

*chorus:
  understand as much as we can.........
G|---------------------------------------------------------------|
D|---------------------------------------------------------------|
A|---------------------------------------------------------------|
D|-3-(x8)-6-(X8)-11-(x8)-8-(x8)-11-(x8)-3-(x8)-6-(x8)-8--(x8)----|

*repeat this...
Well were feeling .........

G|---------------------------------------------------------|
D|---------------------------------------------------------|
A|------------------3h4p3~--------------------4~~----------|
D|-3-33-63---3-3---6---------3-33-63---3-3--36-------------|


G|---------------------------------------------------------|
D|---------------------------------------------------------|
A|------------------3h4p3~------------------43-------------|
D|-3-33-63---3-3---6---------3-33-63---3-3----6------------|


G|---------------------------------------------------------|
D|---------------------------------------------------------|
A|------------------3h4p3~--------------------4~~----------|
D|-3-33-63---3-3---6---------3-33-63---3-3--36-------------|

G|---------------------------------------------------------|
D|---------------------------------------------------------|
A|------------------3h4p3~---------------------------------|
D|-3-33-63---3-3---6---------3-33-63---33--1~~-------------|


*then repeat refrain & chorus

bridge:
Divided and we fall apart....

G|-----------------------------------|
D|-----------------------------------|
A|-----------------------------------|
D|--4(x8)8-(x8)----------------------|

i'll see the hurt................
G|--------------------------------------------|
D|--------------------------------------------|
A|---------------------------------3----------|
D|-11-(x8)-10-(x8)-8--(x8)--6-(x4)-3-(x4)-----|

and spliff again...............................

G|-------------------     --------------------|
D|-------------------     --------------------|
a|-------------------     --------------------|
D|-4-(x8)------------(x2) -----4-(x8)-4~~~----|

narration:
instrumental:
 *"I knew and the world.................
G|--------------------------------------------|
D|--------------------------------------------|
A|--------------------------------------------|
D|-11~-----10~-----8~-----8~-------8~---------|

G|------------------------------------|
D|------------------------------------|RASTAFAR-I..
A|------------------------------------|
D|-11~-----10~-----8~-----8~~~--------|

scratch then chorus..
E|-xx-------|
B|-xx-------|
G|-xx-------|
D|-xx-------|
A|-xx-------|
D|-xx-------|

repeat chorus (x2)......
then repeat riff as outro...


finishhhh RASTAFAR-I!!!!!!!!!\M/
plsss rate thisss thxx

            
            
Suggest correction
Creating personal tab
Creating personal tab
You can edit any tab online and save it as your Personal.

You can edit, replace or remove any tab part or add personal notes – all changes will be seen only by you.

Personal tabs can be accessed anytime from any device, even offline.
Learn more »
comments
print report bad tab
1 comment total.
0 reply
mesias049 124 Oct 03, 2013 06:03 AM

medyo halatang copy paste...? :P

guest
You may want to rate the tab now too:
select rating
Wanna post a correction for this tab? Suggest correction