Oops, an error
Loading. Please wait.

Song For The Suspect Tab

version 1
version 1

Whole song

81,789 views 132 this week
8 commentsread comments
1 2 3 4 5
excellent!
x 12
add to favorites
launch autoscroll
font size
0
reset
how to read this tab
guitar tuner
Tab Pro tools
  • play this tab
  • loop segment
  • change instrument
  • show fretboard
  • metronome
×
Best way to learn
"Song For The Suspect"
Autoscroll
slow
fast
+/-
esc
set tempo
stop
Difficulty
intermediate
tab by Ian Paolo G. Marco
from "AMA binan Computer college"

add me qng may ask kau:  bullet_4my_valentine28@yahoo.com
plss rate this......

the best to...............
ganito sya pag

standard tuning
then..

drop D

*intro/distort:
guitar 1&2&3
E|---------------------------------------------------------|
B|---------------------------------------------------------|
G|---------------------------------------------------------|
D|--3-3h6-3--3--3h6-3h4-3h6-3h4--3-3h6-3--3-3h6-3--3h4~----|
A|--3-3h6-3--3--3h6-3h4-3h6-3h4--3-3h6-3--3-3h6-3--3h4~----|
D|--3-3h6-3--3--3h6-3h4-3h6-3h4--3-3h6-3--3-3h6-3--3h4~----|

E|---------------------------------------------------------|
B|---------------------------------------------------------|
G|---------------------------------------------------------|
D|--3-3h6-3--3--3h6-3h4-3h6-3h4--3-3h6-3--3-3h6-3h4-4\~~---|
A|--3-3h6-3--3--3h6-3h4-3h6-3h4--3-3h6-3--3-3h6-3h4-4\~~---|
D|--3-3h6-3--3--3h6-3h4-3h6-3h4--3-3h6-3--3-3h6-3h4-4\~~---|

guitar 1&2
E|---------------------------------------------------------|
B|---------------------------------------------------------|
G|---------------------------------------------------------|
D|---------------------------------------------------------|
A|------------------3h4p3~--------------------4~~----------|
D|-3-33-63---3-3---6---------3-33-63---3-3--36-------------|


E|-----------------------------------------------------------|
B|-----------------------------------------------------------|
G|-----------------------------------------------------------|
D|-----------------------------------------------------------|
A|------------------3h4p3~------------------43---------------|
D|-3-33-63---3-3---6---------3-33-63---3-3----6~-------------|


E|---------------------------------------------------------|
B|---------------------------------------------------------|
G|---------------------------------------------------------|
D|---------------------------------------------------------|
A|------------------3h4p3~--------------------4~~----------|
D|-3-33-63---3-3---6---------3-33-63---3-3--36-------------|

E|---------------------------------------------------------|
B|---------------------------------------------------------|
G|---------------------------------------------------------|
D|-------------------------------------33--1~~-------------|
A|------------------3h4p3~-------------33--1~~-------------|
D|-3-33-63---3-3---6---------3-33-63---33--1~~-------------|


*reggae part
guitar 3
clean
E|---------------------------------------------------------|
B|--xx6xx6xx6xx88--------xx6xxxxxxxx44---------------------|
G|--xx5xx5xx5xx77--------xx5xxxxxxxx33---------------------|
D|--xx3xx3xx3xx55--(x3)--xx3xxxxxxxx11---------------------|(X2)
A|---------------------------------------------------------|
D|---------------------------------------------------------|


*Verse: w/delay
E|------------------------------------------------------------|
B|----6~~------4~~------2~~-----1~~--0-1-2\~~-----------------|
G|-55------55-------55-------33-------------------------------|
D|------------------------------------------------------------|
A|------------------------------------------------------------|
D|------------------------------------------------------------|

E|-----------------------------------------------------------|
B|----6~~------4~~------2~~-----1~~--2-1/2~~-----------------|
G|-55------55-------55-------33------------------------------|
D|-----------------------------------------------------------|
A|-----------------------------------------------------------|
D|-----------------------------------------------------------|


*riff: w/ distort
E|----------------------------------------------------------------------6*6*6*-|
B|----------------------------------------------------------------------6*6*6*-|
G|----------------------------------------------------------------------6*6*6*-|
D|--3~-334333333334643-3343333333311---3~~334333333334643-33433333333----------|
A|--3~-334333333334643-3343333333311---3~~334333333334643-33433333333----------|
D|--3~-334333333334643-3343333333311---3~~334333333334643-33433333333----------|(X2)

*2nd part guitar 3
E|----------------------------------------------------------------------------0000-|
B|----------------------------------------------------------------------------0000-|
G|--5~-55655555555-6/8/6\5--565555555533--5~-55655555555-6/8/6\5-55655555555--0000-|
D|--x~-xxxxxxxxxxx-x/x/x\x--xxxxxxxxxxxx--x~-xxxxxxxxxxx-x/x/x\x-xxxxxxxxxxx--0000-|
A|--3~-33433333333-4/6/4\3--343333333311--3~-33433333333-4/6/4\3-33433333333--0000-|
D|----------------------------------------------------------------------------0000-|

E|-------------------------------------------------------------------------------|
B|-------------------------------------------------------------------------------|
G|--5~-55655555555-6/8/6\5--565555555533--5~-55655555555-6/8/6\5-5565555555533---|
D|--x~-xxxxxxxxxxx-x/x/x\x--xxxxxxxxxxxx--x~-xxxxxxxxxxx-x/x/x\x-xxxxxxxxxxxxx---|
A|--3~-33433333333-4/6/4\3--343333333311--3~-33433333333-4/6/4\3-3343333333311---|
D|-------------------------------------------------------------------------------|

*repeat Verse

*then refrain:
    Another    new day to.......
E|---------------------------------------------|
B|---------------------------------------------|
G|-6666666666--6/88888/1010101010\888----------|
D|-6666666666--x/xxxxx/x-x-x-x-x-\xxx----------|
A|-4444444444--4/66666/8-8-8-8-8-\666----------|
D|---------------------------------------------|

*chorus:
  understand as much as we can.........
E|---------------------------------------------------------------|
B|---------------------------------------------------------------|
G|-5------8------13------10-----13------5------8------10---------|
D|-3------6------11------8------11------3------6------8----------|
A|-3------6------11------8------11------3------6------8----------|
D|-3-(x8)-6-(X8)-11-(x8)-8-(x8)-11-(x8)-3-(x8)-6-(x8)-8--(x8)----|

*repeat this...
guitar 1&2
Well were feeling .........
E|---------------------------------------------------------|
B|---------------------------------------------------------|
G|---------------------------------------------------------|
D|---------------------------------------------------------|
A|------------------3h4p3~--------------------4~~----------|
D|-3-33-63---3-3---6---------3-33-63---3-3--36-------------|


E|---------------------------------------------------------|
B|---------------------------------------------------------|
G|---------------------------------------------------------|
D|---------------------------------------------------------|
A|------------------3h4p3~------------------43-------------|
D|-3-33-63---3-3---6---------3-33-63---3-3----6------------|


E|---------------------------------------------------------|
B|---------------------------------------------------------|
G|---------------------------------------------------------|
D|---------------------------------------------------------|
A|------------------3h4p3~--------------------4~~----------|
D|-3-33-63---3-3---6---------3-33-63---3-3--36-------------|

E|---------------------------------------------------------|
B|---------------------------------------------------------|
G|---------------------------------------------------------|
D|-------------------------------------33--1~~-------------|
A|------------------3h4p3~-------------33--1~~-------------|
D|-3-33-63---3-3---6---------3-33-63---33--1~~-------------|

*then guitar 3:
E|----------------------------|
B|----------------------------|
G|---------5656555------------|
D|--------6-------------------|(repeat many times)
A|----/888--------------------|
D|----------------------------|

*then repeat refrain & chorus

bridge:
Divided and we fall apart....
E|-----------------------------------|
B|-----------------------------------|
G|--6----10--------------------------|
D|--4----8---------------------------|
A|--4----8---------------------------|
D|--4(x8)8-(x8)----------------------|

i'll see the hurt................
E|--------------------------------------------|
B|--------------------------------------------|
G|--------------------------------------------|
D|-13------13------10-------8------3----------|
A|-11------10------8--------6------3----------|
D|-11-(x8)-10-(x8)-8--(x8)--6-(x4)-3-(x4)-----|

and spliff again...............................
E|------------------------------     --------------------|
B|------------------------------     --------------------|
G|-6------6/8888/10101010\888---(x2) -----6--------------|
D|-4------x/xxxx/x-x-x-x-\xxx---     -----4------4~~~----|
A|-4------4/6666/8-8-8-8-\666---     -----4------4~~~----|
D|-4-(x8)-----------------------     -----4-(x8)-4~~~----|

narration:
instrumental:
guitar 1&2
w/delay
 *"I knew and the world.................
E|--------------------------------------------|
B|--------------------------------------------|
G|--------------------------------------------|
D|-13~-----13~-----8~-----11~------10~--------|
A|-11~-----11~-----8~-----8~-------8~---------|
D|-11~-----10~-----8~-----8~-------8~---------|

E|------------------------------------|
B|------------------------------------|
G|------------------------------------|
D|-13~-----13~-----8~-----11~~~-------|RASTAFAR-I..
A|-11~-----11~-----8~-----8~~~--------|
D|-11~-----10~-----8~-----8~~~--------|


guitar 3
clean w/delay
E|---------8~--------8h9p8~--------8-9----11~~--|
B|-------9---------9-------------9--------9~~---|
G|--8h10------8h10----------8h10----------------|RASTAFAR-I
D|----------------------------------------------|
A|----------------------------------------------|
D|----------------------------------------------|

scratch then chorus..
E|-xx-------|
B|-xx-------|
G|-xx-------|
D|-xx-------|
A|-xx-------|
D|-xx-------|

repeat chorus (x2)......
then repeat riff as outro...


finishhhh RASTAFAR-I!!!!!!!!!\M/
plsss rate thisss thxx
comments
print report bad tab
8 comments total. Showing first comments.
0 reply
haidie001 wrote on January 23 2011, 09:41 pm

do u knw how to open dis in guitarpro?

0 reply
xaldousx wrote on February 9 2011, 02:33 am

\m/ rastafar-i! :D

0 reply
emothis wrote on February 15 2011, 03:38 am

angas na tabs!! thanks.. may idea na ako kung panu pag drop C#.. haha..

@haidie001
this is not a guitarpro file.. this is only a tab..
if you want a guitarpro file, you can make one and add it or wait for one.. i am making one but it wont be finish soon..

I want to post or [tab]
guest
You may want to rate the tab now too:
select rating
Please do not post tabs as comments. Select "correction" instead!