Oops, an error
Loading. Please wait.

Segnali Di Vita Bass Tab

43 views 6 this week
no commentswrite comment
1 2 3 4 5
3 more votes to show rating
add to favorites
launch autoscroll
font size
0
reset
guitar tuner
Autoscroll
slow
fast
+/-
esc
set tempo
stop
Help us to improve Ultimate-Guitar.com Take our survey!
×
Author
Difficulty
novice
Bass Start - 00:22


[Verse 1]

G|-------------------------|------------------------|------------------------|------------------------|
D|----7-7--7-7--7-7-7-7----|---7-7--7-7--7-7-7-7----|---7-7--7-7--7-7-7------|------------------------|
A|-9\-------------------0--|---------------------0--|-------------------0-0--|---5-5--5-5--7-7-7-7-7--|
E|-------------------------|------------------------|------------------------|------------------------|


G|--------------------------|-------------7-7--------|-------------9-9--------|---9-9--9-9-------------|
D|---4-4--4-4--4-4-4-4-4-4--|-----------------0-0-0--|------------------------|------------------------|
A|--------------------------|---5-5--5-5-------------|---7-7--7-7------7-7----|-------------7-7-7-7----|
E|--------------------------|------------------------|---------------------0--|---------------------0--|


G|------------------------|------------------------|------------------------|------------------------|
D|---7-7--7-7--7-7-7-7----|---7-7--7-7--7-7-7-7----|---7-7--7-7--7-7-7-0----|------------------------|
A|---------------------0--|---------------------0--|---------------------4--|---5-5--5-5--7-7-7-7-7--|
E|------------------------|------------------------|------------------------|------------------------|


G|------------------------|---7-7--7-7--7-7-7-7----|------------------|
D|---4-4--4-4--4-4-4-4----|---------------------0--|------------------|
A|------------------------|------------------------|---7--7--7--7--\--|
E|---------------------2--|------------------------|------------------|


[Chorus]

G|----------------|----------------|----------------|----------------|
D|----------------|----------------|----------------|----------------|
A|--------r-------|--------r-------|--------r-------|--------r-------|
E|----------------|----------------|----------------|----------------|


G|----------------|----------------|----------------|----------------|
D|----------------|----------------|----------------|----------------|
A|--------r-------|--------r-------|--------r-------|--------r-------|
E|----------------|----------------|----------------|----------------|


G|----------------|----------------|----------------|----------------|
D|----------------|----------------|----------------|----------------|
A|--------r-------|--------r-------|--------r-------|--------r-------|
E|----------------|----------------|----------------|----------------|


G|------2--------|-----2------|-----7--------|-----------------|
D|-----------2h4-|------------|--------------|-----------------|
A|--0------------|-0--------4-|-5--------5h6-|-7-7-7-7-7-7-7\--|
E|---------------|------------|--------------|-----------------|


[Bridge]

G|--------------------------|------------------------|------------------------|---7-7--7-7-------------|
D|---7-7--7-7--7-7-7-7-7-7--|---7-7--7-7--7-7-7-7----|---7-7--7-7--7-7-7-0----|------------------------|
A|--------------------------|---------------------0--|---------------------4--|-------------7-7-7-7----|
E|--------------------------|------------------------|------------------------|---------------------0--|


G|------------------------|---7-7--7-7--7-7-7-7----|------------------------|--xx-7h9-xx-7h9-xx-7h9-xx-7h9--|
D|---4-4--4-4--4-4-4-4----|---------------------0--|------------------------|-------------------------------|
A|------------------------|------------------------|---7-7--7-7--7-7-7-7----|-------------------------------|
E|---------------------2--|------------------------|---------------------0--|-------------------------------|


[Verse 2]

G|------------------------|------------------------|------------------------|---7-7--7-7-------------|
D|---7-7--7-7--7-7-7-7----|---7-7--7-7--7-7-7-7----|---7-7--7-7--7-7-7-0----|------------------------|
A|---------------------0--|---------------------0--|---------------------4--|-------------7-7-7-7----|
E|------------------------|------------------------|------------------------|---------------------0--|


G|------------------------|--------------------------|------------------------|------------------------|
D|---4-4--4-4--4-4-4-2----|--------------------------|------------------------|------------------------|
A|---------------------4--|---5-5--5-5--5-5-5-5-5-5--|---7-7--7-7--7-7-7-7----|---7-7--7-7--7-7-7---7--|
E|------------------------|--------------------------|---------------------0--|-------------------7----|


G|------------------------|------------------------|-----------------------|---7-7--7------------------|
D|---7-7--7-7--7-7-7-7----|---7-7--7-7--7-7-7-7----|---7-7--7-7--7-7-7-0---|---------------------------|
A|---------------------0--|---------------------0--|---------------------4-|-5--------5--7--7-7-7-7----|
E|------------------------|------------------------|-----------------------|------------------------0--|


G|------------------------|-------------7-7-7-7----|---------------------7h9--|---------------------7h9--|
D|---4-4--4-4--4-4-4-2----|---------------------0--|--------------------------|--------------------------|
A|---------------------4--|---5-5--5-5-------------|---7-7--7-7--7-7-7-7------|---7-7--7-7--7-7-7-7------|
E|------------------------|------------------------|--------------------------|--------------------------|


[Chorus]

G|----------------|----------------|----------------|----------------|
D|----------------|----------------|----------------|----------------|
A|--------r-------|--------r-------|--------r-------|--------r-------|
E|----------------|----------------|----------------|----------------|


G|----------------|----------------|----------------|----------------|
D|----------------|----------------|----------------|----------------|
A|--------r-------|--------r-------|--------r-------|--------r-------|
E|----------------|----------------|----------------|----------------|


G|----------------|----------------|----------------|-------------------|
D|----------------|----------------|----------------|-------------------|
A|--------r-------|--------r-------|--------r-------|-------------------|
E|----------------|----------------|----------------|--x-0-0-0-0-0-0-0--|


G|----------------|-----2------|-----7--------|---------------9-9-9-9---------9\--|
D|---------2/4\2--|------------|--------------|-----------------------------------|
A|--0-------------|-0--------4-|-5--------5h6-|-7-7-7-----------------7-7-7-7-----|
E|----------------|------------|--------------|-------0-0-0-0---------------------|


[Outro]

G|---------------|--------------|---------------|--------------|----------------|
D|--------9------|-------7---7--|--------9------|-------7------|-------10-------|
A|------8---8----|-----7---7----|------8---8----|-----7--------|-----9----9-----|
E|--7----------7-|-5------------|--7----------7-|-5--------6-7-|-8----------8-7-|


G|----------------|------------7-------|---------------|
D|-------7--------|--------7h9----7h9--|------------9--|
A|-----7-----7----|--4-5---------------|--7-7-7-7-7----|
E|-5-----------5--|--------------------|---------------|


G|----------------|------------------------|------|-----|
D|-------------7--|------------------------|------|-----|
A|-------7---7----|-----4--5---5-5/14--12--|------|-----|
E|--5-------------|--5---------------------|--12--|--5--|



**********************

| / : slide up
| \ : slide down
| h : hammer-on
| x : dead note
| r : rest

**********************

in regular sequence!
Suggest correction
Give kudos to tab author, rate the tab!
1 2 3 4 5
comments
print report bad tab
guest
You may want to rate the tab now too:
select rating
Wanna post a correction for this tab? Suggest correction