Oops, an error
Loading. Please wait.

Contra Vientos Y Mareas tab

version 1
version 1

Whole song

23 views 1 this week
no commentswrite comment
1 2 3 4 5
2 more votes to show rating
add to favorites
×
Save as Personal and add changes to this tab that will be seen only by you. Learn more ›
×
You can save this tab as Personal to edit and correct it or add notes. All changes will be seen only by you. Learn more »
launch autoscroll
font size
0
reset
how to read this tab
guitar tuner
edit
Autoscroll
slow
fast
+/-
esc
set tempo
stop
FRANCO DE VITA: CONTRA VIENTOS Y MAREAS (TAB)

transcripcion: Gustavo Calle Crespo

Bueno mis guambras aqui les mando otra transcripcion mia de este
increible artista como es Franco, la version que yo tengo, es
con dos guitarras, pero la segunda no es mucha cosa, casi nada,
con todo la adapte para tocarla solo con una. Estoy 99.9% seguro
de que me salio perfecta; ya que me fije y las anteriores no
estaban nada bien.
Está muy facil, mas que todo ahi te lo explico paso a paso, pero
con todo, guiate con la canción xq está sacada al tono original.
Cualquier duda, comentario o petición me escribes a mi e-mail
Gustavo_Luchin@

Pero antes que nada esta chevere canción se la quiero dedicar a
mi Gaby... que ya sabes que te quiero la rebola...
QUE VIVA LA UDA....!!!!!!!

------------------------------------------------------------
------------------------------------------------------------


INTRO
          F               Dm
e-------------------------------0----0--0p1---------------
B-------1---------1----------------------------3----------
G-----------2-------2--------2----2---------2----2--------
D-----3---3-----3-----3---0------------------------0------
A---------------------------------------------------------
E---1--------1--------------------------------------------
          F               Dm
e-------------------------------0----0--0p1...------------
B-------1---------1---------------------------------------
G-----------2-------2--------2----2-----------------------
D-----3---3-----3-----3---0-------------------------------
A---------------------------------------------------------
E---1--------1--------------------------------------------


ESTAS NOTAS LAS TOCAS DONDE TE INDICO EN LA CANCION:

      F                         Dm
e------------------------       e--------0----0--0p1-----------
B-------1---------1------       B-----------------------3------
G-----------2-------2----       G-----2----2---------2----2----
D-----3---3-----3-----3--       D--0------------------------0--
A------------------------       A------------------------------
E---1--------1-----------       E------------------------------

 Bb                           G
e-------------          e-------3---------
B-------3-----          B------------3----
G-----3----3--          G----4------------
D--------3----          D---------5-------
A-------------          A-----------------
E---1---------          E--3--------------


 C                        Bb1
e---------------         e---------------
B------1--------         B------3--------
G--------0------         G--------3------
D------2---2----         D------3---3----
A--3------------         A--1------------
E---------------         E---------------

 F1                         C1
e-----------------        e-------------0---
B------1----------        B------1----------
G----------0--0p2-        G---------0-------
D----3---3--------        D------2----2-----
A-----------------        A---3-------------
E--1--------------        E-----------------


RIFF1                    Bb(6T)
    C  Bb C(3er traste)
e----------------         e-------6--------
B---1--3--5------         B---6------6-----
G----------------         G-------7----7---
D----------------         D-----8----------
A---3--1--3------         A---8------------
E----------------         E----------------


F2                       C2
e------1---------         e----------
B--1------1------         B---1------
G------2----2----         G----------
D----3-----------         D----------
A--3-------------         A---3------
E----------------         E----------

Am                        Dm1
e-------0---------        e-------1---------
B--1---------1----        B---3-------3-----
G-------2---------        G-----2---2-------
D----2-----2------        D---0-------------
A--0--------------        A-----------------
E-----------------        E-----------------

RIFF2
   C              C/B   F
e------------------------------------------------
B------1------1----1---------1----------1--------
G----------0---------------------2--------2------
D----2---2------2----2-----3---3------3-----3----
A-------------3----2-----------------------------
E--3---------------------1----------1------------

RIFF3
   C               C/B   Bb
e------------------------------------------------
B------1------1----1---------3----------3--------
G----------0---------------------3--------3------
D----2---2------2----2-----3---3------3-----3----
A-------------3----2-----------------------------
E--3---------------------1----------1------------

RIIF4
G                             C/G
e-----------3----------3------------3---------
B--3-----------3--3-------3----1------1-------
G-----------4----------4----4-------0---0-----
D--------5----------5------------2------------
A-----5-----------3------------3--------------
E--3------------------------------------------

----------------------------------------------------------------

INTRO

F                  Dm
No me preguntes como sucedió
Bb         G             C (x2)  >>>--------> (CADA VEZ QUE VEAS ESTE (X2)
O si será cierto tal vez no                    SIGNIFICA QUE
F                      Dm                      TIENES QUE TOCAR DICHA NOTA
Solo se que ahora estoy aquí                   O ARPEGEO 2 VECES)
Bb              G                C (x2)
Y no hago otra cosa que pensar en ti
Bb1  C    F1
Pensar en ti.

F                     Dm
Me resulta un  tanto peligroso
Bb          G             C (x2)
Pero que decirte de lo hermoso
F                  Dm
Sobrepasa cada pensamiento
Bb         G          C1    RIFF1
Inevitable como mi alimento.

CORO:

     Bb(6T)(X2)            F2(2X)
Por eso llévame contigo a donde vayas
Bb             G         C1   RIFF1
Que sin ti mi brújula me falla
Bb(6T)(X2)            F2(2X)
Llévame contigo a donde sea
Bb             C2       INTRO
Contra vientos y  mareas.

F                       Dm
Y va mas allá del bien y el mal
Bb               G          C (x2)
No hay cosa que se le pueda comparar
F                          Dm
Y que puedo hacer si ha sido así
Bb           G         C1   RIFF1
Yo sin ti ya no puedo vivir

CORO

     Bb(6T)(X2)            F2(2X)
Por eso llévame contigo a donde vayas
Bb             G         C1   RIFF1
Que sin ti mi brújula me falla
Bb(6T)(X2)            F2(2X)
Llévame contigo a donde sea
Bb             C2       F
Contra vientos y  mareas.

Am           Dm1
Y que puedo hacer
RIFF2
Si así son las cosas del querer
Am             Dm1
Y no busques razón
RIFF3
Cuando va mandando el corazón
RIFF4
Y no hay quien puede decirle que no
Bb                     F-Dm-Bb-G-C-F-Dm-Bb-G-C1-RIFF1
Esta ciego igual que yo...

CORO:

     Bb(6T)(X2)            F2(2X)
Por eso llévame contigo a donde vayas
Bb             G         C1   RIFF1
Que sin ti mi brújula me falla
Bb(6T)(X2)            F2(2X)
Llévame contigo a donde sea
Bb             C2       F-Dm-F-Dm-F   >>>---------->(EN ESTE ULTIMO FA DA
Contra vientos y  mareas.                        UNA SOLA ARPEGEADA DESDE
                                              LA 6TA HASTA LA 1ERA CUERDA
                                            PARA ASI FINALIZAR LA CANCIÓN)
----------------------------------------
----------------------------------------
Suggest correction
Creating personal tab
Creating personal tab
You can edit any tab online and save it as your Personal.

You can edit, replace or remove any tab part or add personal notes – all changes will be seen only by you.

Personal tabs can be accessed anytime from any device, even offline.
Learn more »
Give kudos to tab author, rate the tab!
1 2 3 4 5
comments
print report bad tab
guest
Wanna post a correction for this tab? Suggest correction