Oops, an error
Loading. Please wait.

Nada Es Igual tab

version 1
version 1

Whole song

11 views 1 this week
no commentswrite comment
1 2 3 4 5
3 more votes to show rating
add to favorites
×
Save as Personal and add changes to this tab that will be seen only by you. Learn more ›
×
You can save this tab as Personal to edit and correct it or add notes. All changes will be seen only by you. Learn more »
launch autoscroll
font size
0
reset
how to read this tab
guitar tuner
edit
Autoscroll
slow
fast
+/-
esc
set tempo
stop
Intro     Riff 1


Riff 1
   C     G     F                     C      G    F         G  C
e-----------------------------------------------------------------
B----------5--------10h11-10-8----------------5--6---5------------
G----5-7-7-----5---------------10------5--7-7---5-----7-5---------
D---5--------5------------------------5--------------------7-5----
A--3---------------------------------3----------------------------
E-----------------------------------------------------------------


C    G     Dm
¿A donde iré?
C      G      F
si tú eres mi único destino,
G            C   F
  donde termina todo,
G           C        F              G
  donde comienza, siempre un nuevo día.

CORO
F    /A /B  /C  C    F
   Y dime que volverás,
Dm             G
que este es tu lugar,
/A /B /C  C      F
que nada cambiará,
Dm            G
aquí entre tú y yo.

E           F
Nada es igual,
G                C
si tú no estás aquí,
E                F
es que nada es igual,
     G            C
para que voy a mentir.


Aquí estaré,
si acaso cambiaras de idea,
dejaré todo como estaba,
porque mi vida, se detuvo aquí.


CORO
Por eso dime que volverás...
                      Dm
...para que voy a mentir.

    G       Dm      G
oh no!    Mmmm! oh no!


SOLO (2:42)

     C     G    F   Dm       C       F-G  F-G  F-G  F-G  G-G
e---------------------------------------
B----8-8-8-8-8-10-----------8-----------
G-----------9---------10-10--9---9-7----
D----------------10------------10-------
A---------------------------------------
E---------------------------------------

     C     G    F             Dm        C       F-G F-G F-G F-G G-G
e------------------------------------------------
B----8-8-8-8-8-10---------------------8----------
G-----------9-----------7/9------10-10--9---9-7--
D----------------10---10---10-------------10-----
A------------------------------------------------
E------------------------------------------------

PUENTE
Dm             Bb
No es igual, despertar,
C                      F
sin saber adonde tú estás,
  G  E    Dm           Bb
ahora no es igual, adivinar,
F                     F-G  F-G  F-G  F-G
si aun tu piensas en mí.


CORO  II

Y dime que volverás,
que este es tu lugar,
que nada cambiará,
si no queremos cambiar.

CORO I

FINAL   Riff 1
Suggest correction
Creating personal tab
Creating personal tab
You can edit any tab online and save it as your Personal.

You can edit, replace or remove any tab part or add personal notes – all changes will be seen only by you.

Personal tabs can be accessed anytime from any device, even offline.
Learn more »
Give kudos to tab author, rate the tab!
1 2 3 4 5
comments
print report bad tab
guest
Wanna post a correction for this tab? Suggest correction