Oops, an error
Loading. Please wait.

Maras Theme bass

10 views 1 this week
2 commentsread comments
1 2 3 4 5
2 more votes to show rating
add to favorites
×
Save as Personal and add changes to this tab that will be seen only by you. Learn more ›
×
You can save this tab as Personal to edit and correct it or add notes. All changes will be seen only by you. Learn more »
launch autoscroll
font size
0
reset
guitar tuner
edit
Autoscroll
slow
fast
+/-
esc
set tempo
stop
Franco Micalizzi - Mara's theme ( 1976 )

https://www.youtube.com/watch?v=uD7NFK9Ozoc

 [Verse 1] 00:20-00:49

G|----------------|----------------|----------------|----------------|
D|----------------|----------------|----------------|----------------|
A|10------8-8-10--|8---------8-----|----------------|6---------6-----|x3
E|------10--------|--------10------|8-----3-6-6-8---|------6-8-------|


 [Verse 2] 01:11-00:49

G|----------------|----------------|----------------|----------------|
D|----------------|----------------|----------------|----------------|
A|10------8-8-10--|8---------8-----|----------------|6---------6-----|x6
E|------10--------|--------10------|8-----3-6-6-8---|------6-8-------|


 [End] 01:59-02:04

G|----------------|----------------|----------------|
D|----------------|----------------|----------------|
A|10------8-8-10--|8---------8-----|10--------------|x1
E|------10--------|--------10------|----------------|

            
            
Suggest correction
Creating personal tab
Creating personal tab
You can edit any tab online and save it as your Personal.

You can edit, replace or remove any tab part or add personal notes – all changes will be seen only by you.

Personal tabs can be accessed anytime from any device, even offline.
Learn more »
Give kudos to tab author, rate the tab!
1 2 3 4 5
comments
print report bad tab
2 comments total.
0 reply
armstrongsabian 395 Aug 02, 2017 08:53 PM

I think it's a sweeter sound to go to the 10 fret on the A string to end it, but this is a great tab! If only I had those percussionists behind me while I play it!

0 reply
aladin111 2,048 Aug 04, 2017 05:58 AM

Indeed : the percussion "makes" the song. And the sound is sweeter with A-string 10th fret. Changed it. Thx

guest
You may want to rate the tab now too:
select rating
Wanna post a correction for this tab? Suggest correction