Oops, an error
Loading. Please wait.

Man Of Steel Bass Tab

342 views 1 this week
no commentswrite comment
1 2 3 4 5
please rate
add to favorites
launch autoscroll
font size
0
reset
guitar tuner
Tab Pro tools
  • play this tab
  • loop segment
  • change instrument
  • show fretboard
  • metronome
×
Best way to learn
"Man Of Steel"
Autoscroll
slow
fast
+/-
esc
set tempo
stop
Contributor
******************************************************************************
* Artist: ---- Frank Black                       			     *
* Song: ------ Man Of Steel                      			     *
* Albums: ---- Oddballs				 			     *
*	       Songs In The Key Of X: Music From And Inspired By The X-Files *
* -------------------------------------------------------------------------- *
* Tuning: ---- E A D G                           			     *
* Tabbed by: - Cuboctahedron                     			     *
******************************************************************************

----------------
!= Intro 1.1: =!
----------------

G|------------------------|------------------------|------------------------|
D|------------------------|------------------------|------------------------|
A|------------------------|0-0-0-0-0-0-0-0-0-0-0-0-|------------------------|
E|0-0-0-0-0-0-0-0-0-0-0-0-|------------------------|0-0-0-0-0-0-0-0-0-0-0-0-|

G|------------------------|------------------------|------------------------|
D|------------------------|------------------------|------------------------|
A|------------------------|------------------------|0-0-0-0-0-0-0-0-0-0-0-0-|
E|0-0-0-0-0-0-0-0-0-0-0-0-|0-0-0-0-0-0-0-0-0-0-0-0-|------------------------|

G|------------------------|------------------------|------------------------|
D|------------------------|------------------------|------------------------|
A|------------------------|------------------------|------1-----------------|
E|0-0-0-0-0-0-0-0-0-0-0-0-|0-0-0-0-0-0-0-0-0-0-0-0-|3-3-3-----4-------------|

----------------
!= Intro 1.2: =!
----------------

G|------------------------|------------------------|------------------------|
D|------------------------|------------------------|2-2-0-2-----------------|
A|------------------------|--------3---3-3-3-3-3-3-|------------------------|
E|0---0---0-0-0-0-3---3-3-|3-3-3-3-----------------|------------------------|

--------------
!= Verse 1: =!
--------------

G|------------------------|------------------------|------------------------|
D|------------------------|------------------------|------------------------|
A|------------------------|------------------------|------3---3---3-3-3-3---|
E|----------------------0-|------0---0---3---3---3-|3-3-3-----------------0-|

G|------------------------|------------------------|------------------------|
D|------0---0-0-5---5-5-4-|--4-4-------------------|------------------------|
A|------------------------|------3-3-3-2-2-2-------|------------------------|
E|--0-0-------------------|------------------0---0-|0-0-0-0-0-3-3-3-3-3-3-3-|

G|------------------------|------------------------|--5-5-5-4-4-4-----------|
D|------------------------|--0-0-0-0-5-5-5-5-4-4-4-|4-----------------------|
A|--3-3-3-3-3-3-3-3-------|------------------------|------------------------|
E|3-----------------0-0-0-|0-----------------------|--------------0---0-0-0-|

G|------------------------|------------------------|------------------------|
D|------------------------|--------------2-2-0-2---|------------------------|
A|----------------------3-|--3---3-3-3-3-----------|------------------------|
E|0-0-0-3---3---3---3-----|------------------------|------------------------|

--------------
!= Verse 2: =!
--------------

G|------------------------|------------------------|------------------------|
D|------------------------|------------------------|------------------------|
A|------------------------|--------------0-0-0-0---|------------------------|
E|------------3-3---------|------3-3-3-3---------0-|0-0-0-0-0-0-0-3-3-3-3-3-|

G|------------------------|------------------------|------------------------|
D|------------------------|------0---0---5---5-5-4-|--4-4-------------------|
A|------3-3-3-3-3-3-3-3---|------------------------|------3-3-3-2-2-2-------|
E|3-3-3-----------------0-|--0---------------------|------------------0---0-|

G|------------------------|------------------------|------------------------|
D|------------------------|------------------------|--0-0-0-0-5-5-5-5-4-4-4-|
A|------------------------|--3---3-3-3---3-3-------|------------------------|
E|0-0-0-0-0-3---3-3-3-3-3-|3-----------------0---0-|0-----------------------|

G|--5-5-5-4-4-4-----------|
D|4-----------------------|
A|------------------------|
E|------------------------|


--------------------
!= Play Intro 1.1 =!
--------------------


G|------------------------|
D|------------------------|
A|------------------------|
E|3-3---------------------|

!= Play 3x =!


G|------------------------|------------------------|
D|------------------------|------------------------|
A|3-3-3-3-5-5-5-----------|--------3---3-3-5-5-5---|
E|--------------3-3---3-3-|3-3-3-3-----------------|
B|------------------------|------------------------|

------------
!= Outro: =!
------------

G|------------------------|------------------------|
D|------------------------|------------------------|
A|-------------------3-3-3|-3-5-5-5----------------|
E|3--3---3-3-3-3-3-3------|------------------------|

!= Play 19x =!


G|------------------------|------------------------|
D|------------------------|----3-5-----------------|
A|------------------3-3-3-|3-5---------------------|
E|3-3---3-3-3-3-3-3-------|--------3-3-------------|
comments
We did not receive enough feedback on this tab! Please rate:
print report bad tab
1 2 3 4 5
I want to post or [tab]
guest
You may want to rate the tab now too:
select rating
Please do not post tabs as comments. Select "correction" instead!