Oops, an error
Loading. Please wait.

Smoke Up Tab

325 views 1 this week
no commentswrite comment
1 2 3 4 5
3 more votes to show rating
add to favorites
launch autoscroll
font size
0
reset
how to read this tab
guitar tuner
Autoscroll
slow
fast
+/-
esc
set tempo
stop
Help us to improve Ultimate-Guitar.com Take our survey!
×
Author
Difficulty
intermediate
Frank Black and the Catholics
Song: Smoke Up
Album: Pistolero

VERSE:
 Em             F# G           D
   Stone was in me  when i was rougher

          G         Em               C   Cm          G
   Now my power has suffered in this hour, Of my oversleep

 Em               F#   G             D
   Alone with the beast and my skull choppers

           G           Em
   Now i'm just a name dropper

          C             Cm           G
   And I'm bust in these deep slumberweeds

 Em             F#
   Stone was in me

BRIDGE:
   Bm             Gmaj7
     It's so damn late

   Em             Gmaj7
     It's so damn dark

   Bm              Gmaj7
     Pull up those drapes

                Bm                Gmaj7
     Hey, let's see just where we are (here it comes)


CHORUS:
   D/A*  E/B*  F#/C#*  B  A

   D/A               E/B  F#/C#
     I finally woke up

   B       A
    That's right

               G           A              D/A  E/B  
 B A
   'Cause I've got to make something work out

   D/A                  E/B  F#/C#
      I sent some smoke up

   B       A
    That's right

               G           A              D/A  E/B  
 B A
   'Cause I've got to make something work out


SOLO: verse chords**
            Em        F#       G         D  
      Em         C      Cm
E----------|---------------7--------------------------------------------|
B----------|-3--5--3--~5~-----~5~--3------------------------------------|
G--------2-|--------------------------4--2-----4--2---------------------|
D--2--4----|-----------------------------------------4--2--0--~2~--0----|
A----------|----------------------------------------------------------4-|
E----------|------------------------------------------------------------|

    G    Em      F#                     G   
        G        Em
-------------------------------5-----------------------------------------|
------------3--7r5~---7--5--7-----7--5-----~5~--3--0--0h3r0-----0----0---|
---------4------------------------------7--------------------2-----2-----|
-------------------------------------------------------------------------|
-2--0--------------------------------------------------------------------|
-------------------------------------------------------------------------|

  C         Cm     G            Em     F#
--------------------------------------------------|
-0-----5----~5~-----------------------------------|
----5-----5-----7--5--4---------~4~-2--1--2--4~---|
-------------------------7--5---------------------|
--------------------------------------------------|
--------------------------------------------------|
h = hammer on
r = release (it’s like the opposite of a hammering on)
~ = bend (it’s up to you to determine how and how much you have to bend)

BRIDGE

CHORUS

  I sent some smoke up, that’s right
  Cuz I gotta make somthing work out
  Thats right
  I gotta something out
  That’s right
  Cuz I’ve got to make something work out

*the slash chords in the chorus are:

    D/A    E/B    F#/C#       and Gmaj7:
E-------|-------|--------       ------|
B-------|-------|--------    --0------|
G---7---|---9---|---11---    --0------|
D---7---|---9---|---11---    --4------|
A---5---|---7---|----9---    --2------|
E---5---|---7---|----9---    --3------|


**for the D and Cm during the solo, do this:
D      Dsus D    Cm
E-2---2-h-3---2--|-3--3-h-5--3--|
B-3---3---3---3--|-4--4---4--4--|
G-2---2---2---2--|-5---------5--|
D-0---0---0---0--|-5---------5--|
A----------------|-3---------3--|
E----------------|--------------|
Suggest correction
Give kudos to tab author, rate the tab!
1 2 3 4 5
comments
print report bad tab
guest
You may want to rate the tab now too:
select rating
Wanna post a correction for this tab? Suggest correction