Oops, an error
Loading. Please wait.

Frank Tv Theme Bass Tab

395 views 1 this week
no commentswrite comment
1 2 3 4 5
please rate
add to favorites
launch autoscroll
font size
0
reset
guitar tuner
Autoscroll
slow
fast
+/-
esc
set tempo
stop
Help us to improve Ultimate-Guitar.com Take our survey!
×
Author
Difficulty
Artist:Frank Caliendo
Song: Frank TV Theme

I play regular written notes so I don't really like tabs, but here's my best effort at it.

Standard Tuning- EADG


G/-------------0---------------0----2--0----0-----|
D/-------0-2-------------0-2--------------2----0--|
A/--3---------------3-----------------------------|
E/------------------------------------------------|


G/-------------0---------------0----2--0--2-4-5--|
D/-------0-2-------------0-2---------------------|
A/--3---------------3----------------------------|
E/-----------------------------------------------|

I think that repeats a lot but I was really paying attention when it was on TV. I'm not 
if i placed the numbers right, but you should probably know how it goes anyway.

http://www.tbs.com/shows/franktv/
Suggest correction
Give kudos to tab author, rate the tab!
1 2 3 4 5
comments
print report bad tab
guest
You may want to rate the tab now too:
select rating
Wanna post a correction for this tab? Suggest correction