Oops, an error
Loading. Please wait.

I Hate You bass

679 views 27 this week
1 commentread comment
1 2 3 4 5
1 last vote to show rating
add to favorites
×
Save as Personal and add changes to this tab that will be seen only by you. Learn more ›
×
You can save this tab as Personal to edit and correct it or add notes. All changes will be seen only by you. Learn more »
launch autoscroll
font size
0
reset
guitar tuner
edit
Autoscroll
slow
fast
+/-
esc
set tempo
stop
Author
Difficulty
About this tab version
Transcribed from studying a youtube cover. Was this info helpful? Yes No
Frank Carter & the Rattlesnakes – I Hate You – Bass tab

Tuning – EADG

NO BASS IN INTRO

[1:05]
G|------------|----------------------------------|
D|------------|x2--------------------------------|
A|-----222222-|------222222/4---2444444444444444-|
E|--2-0-------|---2-0--------2-0-----------------|

[1:37]
G|-2------|----2-----|----------2-|--------------------------|
D|--------|x3--------|------------|x3------------------------|
A|--2222--|-----2222-|-------2-2--|---------2222222222222222-|
E|------2-|----------|-2-20-0-----|---2-20-0-----------------|

[2:53]
G|---------------|-------------------------------------------|
D|-----4---------|x2------4-------4-----4--------------------|
A|--2/4-2222-420-|-----2/4-222-2/4---2/4-244444442444444-----|
E|-2-------------|----2-------------2------------------------|

[3:22]
G|----------------------------------------------------------------|
D|-------------------------24-------------------------------------|
A|-------------------222224---------------------22222420----------|
E|-22202020-00000000----------22202020-00000000-------------------|

[3:34]
G|----2---2-------------2---2----------|
D|----------------24-------------------|
A|----------222224------------24444444-|
E|-222-000-----------222-000-----------|

[3:48]
G|----------------------------------------------------------------|
D|-------------------------24-------------------------------------|
A|-------------------222224-------------------222-444 20----------|
E|-22202020-00000000----------22202020-0000000----------20--------|

[4:00]
G|----2---2-------------2----2----------------------------------------|
D|----------------24-----------------------------42-------------------|
A|----------222224-------------24444444-24444444---42-----------------|
E|-222-000-----------222--000------------------------2----------------|


************************************

| x  Dead note
| /  Slide up 

************************************ 

            
            
Suggest correction
Creating personal tab
Creating personal tab
You can edit any tab online and save it as your Personal.

You can edit, replace or remove any tab part or add personal notes – all changes will be seen only by you.

Personal tabs can be accessed anytime from any device, even offline.
Learn more »
Give kudos to tab author, rate the tab!
1 2 3 4 5
comments
print report bad tab
1 comment total.
0 reply
keephardcore 76 Jun 13, 2017 06:30 PM

Hey! Thanks for your transcription from my cover, you could have at least told me haha! Thank you again :)

guest
You may want to rate the tab now too:
select rating
Wanna post a correction for this tab? Suggest correction