Oops, an error
Loading. Please wait.

Wild Flowers Acoustic chords

388 views 30 this week
3 commentsread comments
1 2 3 4 5
x 4
add to favorites
×
Save as Personal and add changes to this tab that will be seen only by you. Learn more ›
×
You can save this tab as Personal to edit and correct it or add notes. All changes will be seen only by you. Learn more »
launch autoscroll
font size
0
reset
transpose
0
reset
display chords
guitar tuner
edit
Autoscroll
slow
fast
+/-
esc
set tempo
stop
Strumming Is this strumming pattern correct? Yes No
125 bpm
1
&
2
&
3
&
4
&
Listen
Really easy song, only 3 chords! Listen to the song for timings and what I mean by high strings.

A - |5 7 7 6 5 5|
D - |10 12 12 11 10 10|
C - |8 10 10 9 8 8|


[Intro]
A x4

[Verse] 
(Don't play the high strings)
          A
She is so beautiful

With flowers in her hair
D                       C
Her perfume smells like summer air
        A
And her lips are the sweetest like honey and milk
        D                              C
And her skin white like snowflakes but soft as silk
        A
And her hair is as black as a reservoir
   D                         C
At midnight and still and it takes me so far
   A
So far that I don't believe that there is an end
       D                         C
But if there is I will climb and dive in again

[Chorus] 
(Play the high strings)
A                       C
We picked daisies and I made a chain
D             C                   A
Asleep in the grass, both feeling insane
       D          C                      A
And if this isn't love don't show me the truth
  D                  C
I said if this isn't love
                    A
I'm gonna need some proof

A x4

[Verse] 
(Don't play the high strings)

          A
Tiny wild flowers all tied in your hair
     D                C
Like stars in the sky floating there
  A
A constellation gorgeous and new
    D
You called it The Lovers
  C
I believed it was true
A
All of a sudden you rose from our nest
   D
No longer felt love
       C
I felt sorrow instead
       A
As you walked you combed out your hair
    D                         C
And all the flowers fell like birds through the air

[Chorus] 
(Play the high strings)
A                       C
We picked daisies and I made a chain
D             C                   A
Asleep in the grass, both feeling insane
       D          C                      A
And if this isn't love don't show me the truth
  D                  C
I said if this isn't love
                    A
I'm gonna need some proof

[Break down] 
Finger picked
e|-------------------------------------------------------------------|
B|-----------5--------------------------10--------------------8------|
G|---------------6---------------------------------------------------|
D|--------7---------7---------------12------12------------10-----10--|x2
A|-----7---------------7--------12--------------------10-------------|
E|--5---------------------5/10------------------10/8-----------------|

e|-----------------------------------------------------------------------|
B|---------------5--------------------------10--------------------8------|
G|-------------------6---------------------------------------------------|
D|------------7---------7---------------12------12------------10-----10--|
A|---------7---------------7--------12--------------------10-------------|
E|------5---------------------5/10------------------10/8-----------------|
  Like stars in the sky    Falling to earth

e|-----------------------------------------------------------------------|
B|---------------5--------------------------10--------------------8------|
G|-------------------6---------------------------------------------------|
D|------------7---------7---------------12------12------------10---------|
A|---------7---------------7--------12--------------------10-------------|
E|------5---------------------5/10------------------10/8-----------------|
    The Lovers are dead       The Lovers are cursed

[Chorus] 
(Play the high strings)

A                       C
We picked daisies and I made a chain
D             C                   A
Asleep in the grass, both feeling insane
       D          C                      A
And if this isn't love don't show me the truth
  D                  C
I said if this isn't love
                    A*             [strum once]
I'm gonna need some proof



************************************

| /  Slide up
 

************************************

            
            
Suggest correction
Creating personal tab
Creating personal tab
You can edit any tab online and save it as your Personal.

You can edit, replace or remove any tab part or add personal notes – all changes will be seen only by you.

Personal tabs can be accessed anytime from any device, even offline.
Learn more »
comments
print report bad tab
3 comments total.
+1 reply
cailean.parker 10 Aug 04, 2017 06:00 PM

Found a video on YouTube of Frank Carter and his guitarist performing the song live acoustically. Watched the guitarist closely and compared what he did to your tab: they match perfectly, as far as I can tell. Thanks for the quality tab, mate!

0 reply
HMilch 95 Sep 06, 2017 07:20 AM

But it is tuned half-step down! You should add that to this tab!

guest
You may want to rate the tab now too:
select rating
Wanna post a correction for this tab? Suggest correction